Hound Dog
Words:Jerry Leiber and Mike Stoller
Music:Jerry Leiber and Mike Stoller
Performed By:  Elvis Presley, The Jordanaires, Eric Clapton
Copyright:Unknown
Jumbo Jimbo's
Song Lyrics Archive
Search Database:
 


 

Tabbed by Brian Becker (bbecker@easy-pages.com)

CHORDS
      C F9  G9             F*
  |---8--8--10--|    |--8---------|
  |---8--8--10--|    |--8---------|
  |---9--8--10--|    |--8----8-5--|
  |--10--7---9--|    |--7--7------|
  |--10--8--10--|    |--8---------|
  |---8---------|    |------------|

VERSE 1
                          C
  You ain't nothin' but a hound dog, cryin' all the time.
                          F9*                        C
  You ain't nothin' but a hound dog, cryin' all the time.
            G9                         F9
  You ain't never caught a rabbit, you ain't no friend of
     C
     mine.

VERSE 2 (same chords)
  They said you was high classed, that was just a lie.
  They said you was high classed, that was just a lie.
  You ain't never caught a rabbit, you ain't no friend
    of mine.

REPEAT VERSE 1

GUITAR SOLO 1
  |------------------------------------------------|
  |------------------------------------------------|
  |------------------------------------------------|
  |--------1---1---1--------------1-3-1---1--------|
  |----1-3---3---3---3-1-3----1-3-------3---3-1-3--|
  |--3----------------------3----------------------|

  |------------------------8-12-8--------------------|
  |-------------------8-10--------12-9----9-10-9-10--|
  |--------------8-10------------------11------------|
  |----------6-8-------------------------------------|
  |------6-8-----------------------------------------|
  |--3/8---------------------------------------------|

  |-----------------12-----------12-8------------|
  |--9--------------12-8/-8/-8/--12-8-10-8-10-8--|
  |----11-9----9-11----8/-8/-8/-------10-8-10-8--|
  |---------11-----------------------------------|
  |----------------------------------------------|
  |----------------------------------------------|

  |--12-8---------------------------|
  |--12-8---------------------------|
  |-------9-9-----------------------|
  |-------9-9----------10-------10--|
  |--------------10-12----12-10-----|
  |-----------12--------------------|

REPEAT VERSE 2

GUITAR SOLO 2
  |-------------11----11----13-----/11-9-----------10-|
  |----------------13----13----13--/11-9-10--8/-8/-10-|
  |--8/5--10/1---------------------------10--8/-8/----|
  |--7/4---9/1----------------------------------------|
  |--8/5--10/2----------------------------------------|
  |---------------------------------------------------|

  |--12-----12-----9----9-----12-12p10--8--------|
  |--12-10/-12-10/-9-7/-9-7/--12-12p10--8-10-----|
  |-----10/----10/---7/---7/--------------10-----|
  |------------------------------------------10--|
  |----------------------------------------------|
  |----------------------------------------------|

  |------------------------|
  |------------------------|
  |--10-12----------10-12/-|
  |--10----12-10-12----12/-|
  |------------------------|
  |------------------------|

REPEAT VERSE 2

REPEAT VERSE 1




Bass Tab by Cody Westby
-----------------------

The song's simple:
G------------------------------------------------------
D------------------------------------------------------
A-0-4-7------------------------------------------------
E------------------------------------------------------

Then:
G-------------------------------------------------------
D-0-4-7-------------------------------------------------
A-------------------------------------------------------
E-------------------------------------------------------

do the first one again, then:
G-------------------------------------------------------
D-------0-4-7-------------------------------------------
A-------------------------------------------------------
E-0-4-7-------------------------------------------------

then do it all over again.
© Copyright 2004-06 JumboJimbo.com
Please note that the lyrics collection is provided for private education/information purposes only. You are advised to confirm your compliance with the appropriate local copyright regulations before using any of the material provided by any Internet lyrics site. The lyrics/chords/tabs sheets represent contributors' interpretations of the material and may not be identical to the original versions, which are copyright their respective owners.