Wooden Heart (Muss I Denn)
Words:Berthold Kaempfert, Kay Twomey, Fred Wise and Ben Weisman
Music:Traditional
Performed By:  Elvis Presley
Copyright:Unknown
Jumbo Jimbo's
Song Lyrics Archive
Search Database:
 


 

Tab by Arthur Banks(banksam@apollo.ruralnet.net.au)


Tuning : E A D G B E 	Time Signature: 4/4

  |       |       |       |          |       |       |       |         
|----------------------------------||---------------------------------|
|----------------------------------|*0-----------0-------3------------|
|-----------------0-------2--------||---------------------------------|
|----------------------------------||--------0---------------0--------|
|----------------------------------|*----------------2----------------|
|----------------------------------||3--------------------------------|

  |       |       |       |          |       |       |       |         
|---------------------0------------|-------------0--------------------|
|-1-----------1--------------------|-3---------------3---1------------|
|----------------------------------|----------------------------------|
|---------2---------------2--------|---------0---------------0--------|
|-3--------------------------------|-----------------2----------------|
|-----------------3----------------|-3--------------------------------|

  |       |       |       |          |       |       |       |         
|----------------------------------|-------------0--------------------|
|-0-------------------0------------|-3---------------3---1------------|
|-------------0--------------------|----------------------------------|
|---------0---------------0--------|---------0---------------0--------|
|-----------------2----------------|-----------------2----------------|
|-3--------------------------------|-3--------------------------------|

  |       |       |       |          |       |       |       |         
|----------------------------------|----------------------------------|
|-0-----------0-------3------------|-1-----------1-------0------------|
|----------------------------------|----------------------------------|
|---------0---------------0--------|-0---------------0----------------|
|-----------------2----------------|---------0---------------0--------|
|-3--------------------------------|----------------------------------|

  |       |       |       |        >1|       |       |       |         
|---------------------------------||----------------------------------|
|-----------------3---------------||-0--------------------------------|
|-2-------------------------------||---------------------0------------|
|-0---------------0---------------||---------0---------------0--------|
|---------0---------------0-------||-----------------2----------------|
|---------------------------------||-3--------------------------------|

  |       |       |       |        >2|       |       |       |         
|---------------------------------||----------------------------------|
|-0-------------------------------*|---------------------0------------|
|-----------------0-------2-------||-0--------------------------------|
|---------0-----------------------||---------0---------------0--------|
|---------------------------------*|-----------------2----------------|
|-3-------------------------------||-3--------------------------------|

  |       |       |       |          |       |       |       |         
|----------------------------------|----------------------------------|
|-------------------------0--------|---------------------0------------|
|-0---------------0----------------|-2--------------------------------|
|---------0---------------0--------|-0---------------0----------------|
|-----------------2----------------|---------0---------------0--------|
|-3--------------------------------|----------------------------------|

  |       |       |       |          |       |       |       |         
|----------------------------------|----------------------------------|
|-1--------------------------------|-0-------------------1------------|
|---------------------2------------|----------------------------------|
|-0---------------0----------------|---------0---------------0--------|
|---------0---------------0--------|-----------------2----------------|
|----------------------------------|-3--------------------------------|

  |       |       |       |          |       |       |       |         
|----------------------------------|-0-------------------0------------|
|-3-------------------3------------|----------------------------------|
|----------------------------------|----------------------------------|
|---------0---------------0--------|---------2---------------2--------|
|-----------------2----------------|-3--------------------------------|
|-3--------------------------------|-----------------3----------------|

  |       |       |       |          |       |       |       |         
|-3-----------2-------0------------|----------------------------------|
|----------------------------------|-3--------------------------------|
|----------------------------------|---------------------0------------|
|---------2---------------2--------|---------0---------------0--------|
|-3---------------3----------------|-----------------2----------------|
|----------------------------------|-3--------------------------------|

  |       |       |       |          |       |       |       |         
|----------------------------------|----------------------------------|
|-0--------------------------------|-0-----------0-------3------------|
|-----------------0-------2--------|----------------------------------|
|---------0------------------------|---------0---------------0--------|
|----------------------------------|-----------------2----------------|
|-3--------------------------------|-3--------------------------------|

  |       |       |       |          |       |       |       |         
|---------------------0------------|-------------0--------------------|
|-1-----------1--------------------|-3---------------3---1------------|
|----------------------------------|----------------------------------|
|---------2---------------2--------|---------0---------------0--------|
|-3--------------------------------|-----------------2----------------|
|-----------------3----------------|-3--------------------------------|

  |       |       |       |          |       |       |       |         
|----------------------------------|-------------0--------------------|
|-0-------------------0------------|-3---------------3---1------------|
|-------------0--------------------|----------------------------------|
|---------0---------------0--------|---------0---------------0--------|
|-----------------2----------------|-----------------2----------------|
|-3--------------------------------|-3--------------------------------|

  |       |       |       |          |       |       |       |         
|----------------------------------|----------------------------------|
|-0-----------0-------3------------|-1-----------1-------0------------|
|----------------------------------|----------------------------------|
|---------0---------------0--------|-0---------------0----------------|
|-----------------2----------------|---------0---------------0--------|
|-3--------------------------------|----------------------------------|

  |       |       |       |          |       |       |       |         
|----------------------------------|----------------------------------|
|-----------------0----------------|---------------------0------------|
|-2--------------------------------|---------0------------------------|
|-0---------------0----------------|---------0---------------0--------|
|---------0---------------0--------|-----------------2----------------|
|----------------------------------|-3--------------------------------|

  |       |       |       |         
|----------------------------------|
|----------------------------------|
|-0--------------------------------|
|----------------------------------|
|----------------------------------|
|-3--------------------------------|
© Copyright 2004-06 JumboJimbo.com
Please note that the lyrics collection is provided for private education/information purposes only. You are advised to confirm your compliance with the appropriate local copyright regulations before using any of the material provided by any Internet lyrics site. The lyrics/chords/tabs sheets represent contributors' interpretations of the material and may not be identical to the original versions, which are copyright their respective owners.