Who Wants To Live Forever
Words:Brian May
Music:Brian May
Performed By:  Queen, Shirley Bassey
Copyright:Unknown
Jumbo Jimbo's
Song Lyrics Archive
Search Database:
 


 

Arranged and transcribed by Jon Rosling, (c) 1994

  INTRO
  Am
E|----0---|--------|--------|
B|---1-1-1|--------|--------|
G|--2---2-|2-2-----|--------|
D|-2------|-2-2----|--------|
A|0-------|----0 let ring 0-|
E|--------|--------|--------|
  1.2.3.4. 1.2.3.4. 1.2.3.4.

  VERSE 1 & 2
  Am                Em                C   G    A        C        D
E|----0---|----0---|----0---|----0---|--------|----0---|----0---|2--23---|
B|---1-1--|---1-1-1|---0-0--|---0-0-0|1--10--0|2--2-2--|1--1-1-1|--3--3-3|
G|--2---2-|--2---2-|--0---0-|--0---0-|--0---0-|--2---2-|--0---0-|-2----2-|
D|-2-----2|-2------|-2-----2|-2------|-2---0--|-2-----2|-2------|0-------|
A|0-------|0-------|2-------|2-------|3---2---|0-------|3-------|--------|
E|--------|--------|--------|--------|--------|--------|--------|--------|
  1.2.3.4. 1.2.3.4. 1.2.3.4. 1.2.3.4. 1.2.3.4. 1.2.3.4. 1.2.3.4. 1.2.3.4.

  CHORUS 1
  C   G    Am       C   G    Am7      C        D
E|--------|----0---|--------|----0---|----0---|2--23---|
B|1--10--0|---1-1-1|1--10--0|---1-1-1|1--1-1-1|--3--3-3|
G|--0---0-|--2---2-|--0---0-|--0---0-|--0---0-|-2----2-|
D|-2---0--|-2------|-2---0--|-2------|-2------|0-------|
A|3---2---|0-------|3---2---|0-------|3-------|--------|
E|--------|--------|--------|--------|--------|--------|
  1.2.3.4. 1.2.3.4. 1.2.3.4. 1.2.3.4. 1.2.3.4. 1.2.3.4.

  Em
E|----0---|----0---|
B|---0-0--|---0-0--|
G|--0---0-|--0---0-|
D|-2-----2|-2-----2|
A|2-------|2-------|
E|--------|--------|
  1.2.3.4. 1.2.3.4.
  (^^PLAY TWICE^^)

  BREAK
  C        Em       C        Em       C        Em       C        Em
E|----0---|----0---|----0---|----0---|----0---|----0---|----0---|----0---|
B|1--1-1--|0--0-0--|1--1-1--|0--1-1--|1--1-1--|0--0-0--|0--1-1--|0--0-0--|
G|--0---0-|--0---0-|--0---0-|--0---0-|--0---0-|--0---0-|--0---0-|--0---0-|
D|-2-----2|-2-----2|-2-----2|-2-----2|-2-----2|-2-----2|-2-----2|-2-----2|
A|3-------|2-------|3-------|3-------|3-------|2-------|3-------|2-------|
E|--------|--------|--------|--------|--------|--------|--------|--------|
  1.2.3.4. 1.2.3.4. 1.2.3.4. 1.2.3.4. 1.2.3.4. 1.2.3.4. 1.2.3.4. 1.2.3.4.
				      ^^^^ PLAY EACH OF THESE *TWICE* ^^^^

  VERSE 3
  G   D    Em       G   D    Em       D        Em       D        Em
E|----2--2|----0---|----2--2|----0---|2--23---|----0---|2--23---|----0---|
B|0--0--3-|---0-0--|0--0--3-|---0-0--|--3--3-3|---0-0--|--3--3-3|---0-0--|
G|--0--2--|--0---0-|--0--2--|--0---0-|-2----2-|--0---0-|-2----2-|--0---0-|
D|-0--0---|-2-----2|-0--0---|-2-----2|0-------|-2-----2|0-------|-2-----2|
A|2-------|2-------|2-------|2-------|--------|2-------|--------|2-------|
E|--------|--------|--------|--------|--------|--------|--------|--------|
  1.2.3.4. 1.2.3.4. 1.2.3.4. 1.2.3.4. 1.2.3.4. 1.2.3.4. 1.2.3.4. 1.2.3.4.


  D        Bb       Bb
E|2--23---|1--1----|1--1----|
B|--3--3-3|--3-3-3-|--3-3-3-|
G|-2----2-|-3---3-3|-3---3-3|
------|3-------|3-------|
A|--------|--------|--------|
E|--------|--------|--------|
  1.2.3.4. 1.2.3.4. 1.2.3.4.

  CHORUS 2
  C   G    Am       C   G    Am       C   Bm   Am7      C        D
E|--------|----0---|--------|----0---|----2--2|----0---|----0---|2--23---|
B|1--10--0|1--1-1--|1--10--0|1--1-1--|1--1--3-|1--1-1--|1--1-1-1|--3--3-3|
G|--0---0-|--2---2-|--0---0-|--2---2-|--0--4--|--2---2-|--0---0-|-2----2-|
D|-2---0--|-2-----2|-2---0--|-2-----2|-2--4---|-2-----2|-2------|0-------|
A|3---2---|0-------|3---2---|0-------|3-------|0-------|3-------|--------|
E|--------|--------|--------|--------|--------|--------|--------|--------|
  1.2.3.4. 1.2.3.4. 1.2.3.4. 1.2.3.4. 1.2.3.4. 1.2.3.4. 1.2.3.4. 1.2.3.4.

  Em
E|----0---|----0---|
B|---0-0--|---0-0--|
G|--0---0-|--0---0-|
D|-2-----2|-2-----2|
A|2-------|2-------|
E|--------|--------|
  1.2.3.4. 1.2.3.4.

  END CHORDS
  C        Em(STRUM)
E|----0---|0-------|--------|--------|
B|---1-1--|0-------|--------|--------|
G|--0---0-|0-------|--------|--------|
D|-2-----2|2-------|--------|--------|
A|3-------|2-------|--------|--------|
E|--------|0-------|0-------|0-------|
  1.2.3.4. 1.2.3.4. 1.2.3.4. 1.2.3.4.
© Copyright 2004-06 JumboJimbo.com
Please note that the lyrics collection is provided for private education/information purposes only. You are advised to confirm your compliance with the appropriate local copyright regulations before using any of the material provided by any Internet lyrics site. The lyrics/chords/tabs sheets represent contributors' interpretations of the material and may not be identical to the original versions, which are copyright their respective owners.