Leopard Skin Pill Box Hat
Words:Bob Dylan
Music:Bob Dylan
Performed By:  Bob Dylan, John Mellencamp
Copyright:© 1994 Dwarf Music
Jumbo Jimbo's
Song Lyrics Archive
Search Database:
 


 

Turnaround - over start of last line of verses
             (e.g. "Under your brand new...")

  .     .     .       :     .     .     .
|---9-----8-----7---|-5-----0---0-----------
|-------------------|-------5---5-----------
|-9---9-8---8-7---7-|-6-----7---7-----------
|-------------------|-------6---6-----------
|-------------------|-------7---7-----------
|-------------------|-------0---0-----------


Intro from "No Direction Home" version:

           B                         A                     
   .       :     .     .     .       :     .     .     .      
|----9---|\7-------------------9---|---------------------------|
|--------|-------------------------|-10-10---------------8-----|
|-/9---9-|\7----------------/9-----|------------------/9---7p5-|
|--------|-------------------------|---------------------------|
|--------|-------------------------|---------------------------|
|--------|-------------------------|---------------------------|

  E                               B7
  :     .     .     .       :     .     .     .
|---------9-----8---------|-------0---0-------------|
|-------------------------|-------5---5-------------|
|-------9---9-8---8-7---5-|-------7---7-------------|
|-7-----------------------|-7-----6---6-------------|
|-------------------------|-------7---7-------------|
|-------------------------|-------0---0-------------|
© Copyright 2004-06 JumboJimbo.com
Please note that the lyrics collection is provided for private education/information purposes only. You are advised to confirm your compliance with the appropriate local copyright regulations before using any of the material provided by any Internet lyrics site. The lyrics/chords/tabs sheets represent contributors' interpretations of the material and may not be identical to the original versions, which are copyright their respective owners.