Peaches And Diesel
Words:N/A
Music:Eric Clapton and Albhy Galuten
Performed By:  Eric Clapton
Copyright:Unknown
Jumbo Jimbo's
Song Lyrics Archive
Search Database:
 


 

Album: "Slowhand"
Arrangement of Eric Clapton instrumental for two accoustic
guitars (unplugged)


1st Guitar:
-----------

Intro: |D / / / |A/D / / / |D7sus4 / / / |Gm/D / G/D / |
       |D / / / |A/D / / / |D7sus4 / / / |Gm/D / C / ||

Verse:

 F                  G7/F                 Em
 +   +   +   +      +   +   +   +        +   +   +   +
------------------|--------------------|------------------|
---------6--8--10-|-6-------------6h8p6|-5----------------|
------------------|--------------------|------------------|
------------------|--------------------|------------------|
------------------|--------------------|------------------|
------------------|--------------------|------------------|

 Am       Am/G      F                  G7/F
 +     +   +   +     +   +   +   +      +   +   +   +
-------------------|------------------|--------------------|
---/10-----8-------|---------6--8--10-|-6-------------6h8p6|
---/-9-----7-------|------------------|--------------------|
-------------------|------------------|--------------------|
-------------------|------------------|--------------------|
-------------------|------------------|--------------------|

 Em                   Am      Am/G      F
 +   +   +   +        +   +   +   +     +   +   +   +
--------------------|-----------------|------------------|
-5-------------3h5p3|-----------------|---------6--8--10-|
--------------------|-5-------4-5-4---|------------------|
--------------------|-----------------|-7----------------|
--------------------|-----------------|------------------|
--------------------|-----------------|------------------|

 E                  E/A     A (Let ring!................)
 +   +   +    +     +   +   +   +      +   +   +   +
----------------7-|-7-----9-9--------|-----------------||
-9-------9--10----|------------------|-----------------||
------------------|------------------|-----------------||
------------------|------------------|-----------------||
------------------|------------------|-----------------||
------------------|------------------|-----------------||

Chorus:

 D                   A/D                 D7sus4
 +   +    +   +      +    +    +   +     +   +   +   +
-------------------|-------------------|-----------------|
---------^7-5------|---10-10-----------|---------8---7---|
---------^7---7-/9-|-------------------|-----------------|
---------^7--------|-------------------|-----------------|
-------------------|-------------------|-----------------|
-------------------|-------------------|-----------------|

 Gm/D    G/D       D                   A/D
 +   +   +   +     +   +    +   +      +    +    +   +
-----------------|-------------------|-------------------|
-----------------|---------^7-5------|---10-10-----------|
-7---------------|---------^7---7-/9-|-------------------|
---------9-------|-7-------^7--------|-------------------|
-----------------|-------------------|-------------------|
-----------------|-------------------|-------------------|

 D7sus4            Gm/D    C
 +   +   +   +     +   +   +   +
-----------------|-----------------||
---------8---7---|-----------------||
-----------------|-7-------9-------||
-----------------|-----------------||
-----------------|-----------------||
-----------------|-----------------||

Repeat 1x Verse and then play:

Chorus

 D                   A/D                 D7sus4
 +   +    +   +      +    +    +   +     +   +   +   +
-------------------|-------------------|-----------------|
---------^7-5------|---10-10-----------|---------8---7---|
---------^7---7-/9-|-------------------|-----------------|
---------^7--------|-------------------|-----------------|
-------------------|-------------------|-----------------|
-------------------|-------------------|-----------------|

 Gm/D    G/D       D                   A/D
 +   +   +   +     +   +    +   +      +    +    +   +
-----------------|-------------------|-------------------|
-----------------|---------^7-5------|---10-10-----------|
-7---------------|---------^7---7-/9-|-------------------|
---------9-------|---------^7--------|-------------------|
-----------------|-------------------|-------------------|
-----------------|-------------------|-------------------|

 D7sus4            Gm/D    G/D       E
 +   +   +   +     +   +   +   +     +   +   +   +
-----------------|-----------------|-----------------|
---------8---7---|-----------------|-----------------|
-----------------|-7-------9-------|-9---------------|
-----------------|-----------------|-----------------|
-----------------|-----------------|-----------------|
-----------------|-----------------|-----------------|

 A (Let ring!.....)
 +   +   +   +
-5---------------||
-5---------------||
-6---------------||
-7---------------||
-0---------------||
-----------------||

Solo:

 Bb6                Bbdim             Am7             Dm
 +   +    +   +     +   +   +   +     +   +   +   +
--------------5---|-----------------|-8-6-5-----------|
------------6---8-|-------------6---|-------6-----8---|
---------/7-------|-----------7-----|---------------7-|
------------------|-----------------|-----------------|
------------------|-----------------|-----------------|
------------------|-----------------|-----------------|

       Dm/C    Bb6                   Bb/C
 +   +   +   +     +   +   +   +     +   +   +   +
-----------------|---------5-------|-----------------|
-------------6-6-|-----------7-6-8-|---------8-6-6-8-|
-------5---7-----|-----------------|-----------------|
-----------------|-----------------|-----------------|
-----------------|-----------------|-----------------|
-----------------|-----------------|-----------------|

 Bb/F    F                                 Bb6
 +   +   +   +     +    +    +     +       +   +   +    +
-6-----5-5-------|---13-12-8-10-12-10-10-|---------10-8-8-10-|
-----------------|-----------------------|-------------------|
-----------------|-----------------------|-------------------|
-----------------|-----------------------|-------------------|
-----------------|-----------------------|-------------------|
-----------------|-----------------------|-------------------|

 Bbdim             Am7             Dm        Dm/C    Bb6
 +   +   +   +     +    +   +   +      +   +   +   +
-----------------|----8------------5-|-----------------|
-8-6-6-8-6---8-6-|-10---10-----------|-8-6-6-----6-8-6-|
-----------------|-------------------|-------5-7-------|
-----------------|-------------------|-----------------|
-----------------|-------------------|-----------------|
-----------------|-------------------|-----------------|

                   C/Bb
 +   +   +   +     +    +    +    +
-----------------|---------8---------10-||
-----------6-6-8-|-10---11--------10----||
---------7-------|----------------------||
-----------------|----------------------||
-----------------|----------------------||
-----------------|----------------------||

Repeat 1x Chorus, 1x Verse and play again Chorus with repeats ad lib.



2nd guitar:
-----------

Chorus (Intro):

 D                 A/D               D7sus4           Gm/D     G/D
 +   +   +   +     +   +   +   +     +   +   +   +     +   +   +   +
-------2---------|-------0---------|-------3---------|-------3-------3-|
-----3-----3---3-|-----2-----2---2-|-----1-------1---|-----3-------3---|
---2---------2---|---2---------2---|---2-------2---2-|---3-------4-----|
-0-------0-------|-0-------0-------|-0-------0-------|-0-------0-------|
-----------------|-----------------|-----------------|-----------------|
-----------------|-----------------|-----------------|-----------------|

 D                A/D               D7sus4            Gm/D     C
 +   +   +   +     +   +   +   +     +   +   +   +     +   +   +   +
-------2---------|-------0---------|-------3---------|-------3-------0-||
-----3-----3---2-|-----2-----2---2-|-----1-------1---|-----3-------1---||
---2---------2---|---2---------2---|---2-------2---2-|---3-------0-----||
-0-------0-------|-0-------0-------|-0-------0-------|-0---------------||
-----------------|-----------------|-----------------|---------3-------||
-----------------|-----------------|-----------------|-----------------||

Verse:

 F                 G7/F              Em                Am      Am/G
 +   +   +   +     +   +   +   +     +   +   +   +     +   +   +   +
-------1---------|-------1---------|-------0---------|-----------------|
-----1-----1---1-|-----0-----0---0-|-----0-----0---0-|-------1-------1-|
---2---------2---|---0---------0---|---0---------0---|-----2-------2---|
-3-------3-------|-3-------3-------|-2-------2-------|---2-------2-----|
-----------------|-----------------|-----------------|-0---------------|
-----------------|-----------------|-----------------|---------3-------|

 F                 G7/F              Em                Am      Am/G
 +   +   +   +     +   +   +   +     +   +   +   +     +   +   +   +
-------1---------|-------1---------|-------0---------|-----------------|
-----1-----1---1-|-----0-----0---0-|-----0-----0---0-|-------1-------1-|
---2---------2---|---0---------0---|---0---------0---|-----2-------2---|
-3-------3-------|-3-------3-------|-2-------2-------|---2-------2-----|
-----------------|-----------------|-----------------|-0---------------|
-----------------|-----------------|-----------------|---------3-------|

 F                 E                 E/A   A  (Let ring!................)
 +   +   +   +     +   +   +   +     +   +   +   +
-------1---------|-------0---------|-0-----0-0-------|-----------------||
-----1-----1---1-|-----0-----0---0-|-0-----2-2-------|-----------------||
---2---------2---|---1---------1---|-1-----2-2-------|-----------------||
-3-------3-------|-2-------2-------|-----------------|-----------------||
-----------------|-----------------|-0-----0-0-------|-----------------||
-----------------|-----------------|-----------------|-----------------||

Repeat Chorus & Verse, then play:

Chorus:

 D                 A/D               D7sus4            Gm/D    G/D
 +   +   +   +     +   +   +   +     +   +   +   +     +   +   +   +
-------2---------|-------0---------|-------3---------|-------3-------3-|
-----3-------3---|-----2-------2---|-----1-------1---|-----3-------3---|
---2-------2---2-|---2-------2---2-|---2-------2---2-|---3-------4-----|
-0-------0-------|-0-------0-------|-0-------0-------|-0-------0-------|
-----------------|-----------------|-----------------|-----------------|
-----------------|-----------------|-----------------|-----------------|

 D                 A/D               D7sus4            Gm/D    G/D
 +   +   +  +      +   +   +   +     +   +   +   +     +   +   +   +
-------2---------|-------0---------|-------3---------|-------3-------3-|
-----3-----3---3-|-----2-------2---|-----1-------1---|-----3-------4---|
---2---------2---|---2-------2---2-|---2-------2---2-|---3-------3-----|
-0-------0-------|-0-------0-------|-0-------0-------|-0-------0-------|
-----------------|-----------------|-----------------|-----------------|
-----------------|-----------------|-----------------|-----------------|

 E/D               A (Let ring!....)
 +   +   +   +     +   +   +   +
-------4---------|-5---------------||
-----5-------5---|-5---------------||
---4-------4---4-|-6---------------||
-0-------0-------|-7---------------||
-----------------|-0---------------||
-----------------|-----------------||

Bridge (Solo):

 Bb6               Bbdim             Am7           Dm        Dm/C     Bb6
 +   +   +   +     +   +   +   +     +   +   +   +     +   +   +   +
-----------------|-----------------|-----------------|-----------------|
-------3---------|-------2---------|-------1---------|-----3-------3---|
-----0-----0---0-|-----0-----0---0-|-----0-----0-----|---2-------2-----|
---3---------3---|---2---------2---|---2---------2-0-|-----------------|
-1-------1-------|-1-------1-------|-0-------0-------|-------3-------1-|
-----------------|-----------------|-----------------|-----------------|

                   Bb/C              Bb/F  F (Let ring!................)
 +   +   +   +     +   +   +   +     +   +   +   +     +   +   +   +
-----------------|-----------------|-----------------|-----------------||
-------3---------|-------3---------|-3-----1-1-------|-----------------||
-----0-----0---0-|-----3-----3---3-|-3-----2-2-------|-----------------||
---3---------3---|---3---------3---|-3-----3-3-------|-----------------||
---------1-------|-3-------3-------|-----------------|-----------------||
-----------------|-----------------|-1-----1-1-------|-----------------||

 Bb6               Bbdim            Am7            Dm        Dm/C     Bb6
 +   +   +   +     +   +   +   +     +   +   +   +     +   +   +   +
-----------------|-----------------|-----------------|-----------------|
-------3---------|-------2---------|-------1---------|-----3-------3---|
-----0-----0---0-|-----0-----0---0-|-----0-----0-----|---2-------2-----|
---3---------3---|---2---------2---|---2---------2-0-|-----------------|
-1-------1-------|-1-------1-------|-0-------0-------|-------3-------1-|
-----------------|-----------------|-----------------|-----------------|

                   Bb/C
 +   +   +   +     +   +   +   +
-----------------|-----------------||
-------3---------|-------3---------||
-----0-----0---0-|-----3-----3---3-||
---3---------3---|---3---------3---||
---------1-------|-3-------3-------||
-----------------|-----------------||

Chorus:

 D                 A/D               D7sus4           Gm/D     G/D
 +   +   +   +     +   +   +   +     +   +   +   +     +   +   +   +
-------2---------|-------0---------|-------3---------|-------3-------3-|
-----3-----3---3-|-----2-----2---2-|-----1-------1---|-----3-------3---|
---2---------2---|---2---------2---|---2-------2---2-|---3-------4-----|
-0-------0-------|-0-------0-------|-0-------0-------|-0-------0-------|
-----------------|-----------------|-----------------|-----------------|
-----------------|-----------------|-----------------|-----------------|

 D                A/D               D7sus4            Gm/D     C
 +   +   +   +     +   +   +   +     +   +   +   +     +   +   +   +
-------2---------|-------0---------|-------3---------|-------3-------0-||
-----3-----3---2-|-----2-----2---2-|-----1-------1---|-----3-------1---||
---2---------2---|---2---------2---|---2-------2---2-|---3-------0-----||
-0-------0-------|-0-------0-------|-0-------0-------|-0---------------||
-----------------|-----------------|-----------------|---------3-------||
-----------------|-----------------|-----------------|-----------------||

Verse:

 F                 G7/F              Em                Am      Am/G
 +   +   +   +     +   +   +   +     +   +   +   +     +   +   +   +
-------1---------|-------1---------|-------0---------|-----------------|
-----1-----1---1-|-----0-----0---0-|-----0-----0---0-|-------1-------1-|
---2---------2---|---0---------0---|---0---------0---|-----2-------2---|
-3-------3-------|-3-------3-------|-2-------2-------|---2-------2-----|
-----------------|-----------------|-----------------|-0---------------|
-----------------|-----------------|-----------------|---------3-------|

 F                 G7/F              Em                Am      Am/G
 +   +   +   +     +   +   +   +     +   +   +   +     +   +   +   +
-------1---------|-------1---------|-------0---------|-----------------|
-----1-----1---1-|-----0-----0---0-|-----0-----0---0-|-------1-------1-|
---2---------2---|---0---------0---|---0---------0---|-----2-------2---|
-3-------3-------|-3-------3-------|-2-------2-------|---2-------2-----|
-----------------|-----------------|-----------------|-0---------------|
-----------------|-----------------|-----------------|---------3-------|

 F                 E                 E/A   A  (Let ring!................)
 +   +   +   +     +   +   +   +     +   +   +   +
-------1---------|-------0---------|-0-----0-0-------|-----------------||
-----1-----1---1-|-----0-----0---0-|-0-----2-2-------|-----------------||
---2---------2---|---1---------1---|-1-----2-2-------|-----------------||
-3-------3-------|-2-------2-------|-----------------|-----------------||
-----------------|-----------------|-0-----0-0-------|-----------------||
-----------------|-----------------|-----------------|-----------------||

Chorus:

 D                 A/D               D7sus4           Gm/D     G/D
 +   +   +   +     +   +   +   +     +   +   +   +     +   +   +   +
-------2---------|-------0---------|-------3---------|-------3-------3-||
-----3-----3---3-|-----2-----2---2-|-----1-------1---|-----3-------3---||
---2---------2---|---2---------2---|---2-------2---2-|---3-------4-----||
-0-------0-------|-0-------0-------|-0-------0-------|-0-------0-------||
-----------------|-----------------|-----------------|-----------------||
-----------------|-----------------|-----------------|-----------------||

Repeat last chorus ad lib and fade out
© Copyright 2004-06 JumboJimbo.com
Please note that the lyrics collection is provided for private education/information purposes only. You are advised to confirm your compliance with the appropriate local copyright regulations before using any of the material provided by any Internet lyrics site. The lyrics/chords/tabs sheets represent contributors' interpretations of the material and may not be identical to the original versions, which are copyright their respective owners.