Edge Of Darkness
Words:N/A
Music:Eric Clapton and Michael Kamen
Performed By:  Eric Clapton
Copyright:Unknown
Jumbo Jimbo's
Song Lyrics Archive
Search Database:
 


 

E-----------------------------------------------------------------------
B------10^--10----------------------------------------------------------
G---------------11^--11--9--11^-----------9--11--12--9-----11^--11------
D---9------------------------------------------------------------9------
A-----------------------------------------------------------------------
E-----------------------------------------------------------------------

E-----------------------------------------------------------------------
B---------------------------10^--10-------------------------------------
G---9-----9--------------------------11^--11--9--11^--------------------
D------9-----------------9----------------------------------------------
A-----------------------------------------------------------------------
E-----------------------------------------------------------------------

E----------------10--10--8~~~-----h10p8------14^--15--14--14--12--14----
B---10^--10------------------------------10-----------------------------
G-----------------------------------------------------------------------
D--9--------------------------------------------------------------------
A-----------------------------------------------------------------------
E-----------------------------------------------------------------------

E------14^--15--14--12--------------------------------------------------
B-----------------------12---------17~~~--------------------------------
G---------------------------12------------------------------------------
D-----------------------------------------------------------------------
A-----------------------------------------------------------------------
E-----------------------------------------------------------------------
© Copyright 2004-06 JumboJimbo.com
Please note that the lyrics collection is provided for private education/information purposes only. You are advised to confirm your compliance with the appropriate local copyright regulations before using any of the material provided by any Internet lyrics site. The lyrics/chords/tabs sheets represent contributors' interpretations of the material and may not be identical to the original versions, which are copyright their respective owners.