(I) Get Lost
Words:Eric Clapton
Music:Eric Clapton
Performed By:  Eric Clapton
Copyright:Unknown
Jumbo Jimbo's
Song Lyrics Archive
Search Database:
 


 

Intro riff 'A' (2x)-        

             F#m                          E6                            
Bm7
|---------------------------------------------------------------------|
|------------2------------------------2------------------------3------|
|----------------2-----------------------1------------------------2---|
|--------4----------4------------2---------2-------------4-----------2
|----4------------------------2-----------------------2---------------|
|---------------------------------------------------------------------|

      Esus4          E     Esus4 
|------------------------------------|
|-----------------------------0------|
|--------2----------1----2-----------|
|--------2----------2----2-----------|
|------------------------------------|
|------------------------------------|


Intro riff 'B' (1x)-
|-----------------------------------------------------------------------|
|---------7--5/\/\-----7-------5----3/\/\/\/\/\------/3􍆒-----2-------|
|----/6-------------------6/\/\------------------------------2-----2----|
|--------------------------------------------------------------------4/\
|-----------------------------------------------------------------------|
|-----------------------------------------------------------------------|

|-----------------------------------------------------------------------
|----------75----7/9/\/\--107/\/\/\/\-----------/3􍆒----2--5--2/\/\-
|------/6------------------------------------------------2--------------
|-----------------------------------------------------------------------
|-----------------------------------------------------------------------
|-----------------------------------------------------------------------
        

Verse chords
        F#m                  E6          Bm7             E
        F#m                  E6          Bm7             Esus4   (E)   
Esus4    E
        
Chorus chords
        Am            F             D                G              E         
Am
        Am            F             D                G              E

repeat intro riff B

Bridge chords
        F                E*             E
        A               Asus4        F#sus4            F#
        F               E*             E
        A               Asus4        A             F
© Copyright 2004-06 JumboJimbo.com
Please note that the lyrics collection is provided for private education/information purposes only. You are advised to confirm your compliance with the appropriate local copyright regulations before using any of the material provided by any Internet lyrics site. The lyrics/chords/tabs sheets represent contributors' interpretations of the material and may not be identical to the original versions, which are copyright their respective owners.