Bicycle Race
Words:Freddie Mercury
Music:Freddie Mercury
Performed By:  Queen
Copyright:Unknown
Jumbo Jimbo's
Song Lyrics Archive
Search Database:
 


 

Bicycle Race
Words and music by Freddie Mercury

guitar-solo

four guitars
|-------------------------------17h18p17hp...|
|--------------------16h17p16hp...-----------|
|---------14h15p14hp...----------------------|
|-7h8p7hp...---------------------------------|
|--------------------------------------------|
|--------------------------------------------|

two guitars
|--------------7-9-10-----------------------------7-9-10------------------|
|-------7-8-10------------------7-8-10-----7-8-10------------------7-8-10-|
|-2/7-9-------------------6-7-9------2/7-9-------------------6-7-9--------|
|-------------------2/7-9------------------------------2/7-9------------2/...
|-------------------------------------------------------------------------|
|-------------------------------------------------------------------------| 

...still two guitars
|---------|----12-14-15-|---------|----9-11-12-|-----|-----|-----|-11-12-|
|-----7-8-|-15----------|-----4-5-|-12---------|-----|-----|-----|-------|
2/7-9-----|-------------|-4-6-----|------------|-----|-----|-8-9-|-------|
|---------|-------------|---------|------------|-----|-8-9-|-----|-------|
|---------|-------------|---------|------------|-6-7-|-----|-----|-------|
|---------|-------------|---------|------------|-----|-----|-----|-------|

four guitars
|-12b14v___...-11b12v___...-9b10v______________---|
|-------------------------------------10b11v___---|
|-------------------------------------------------|
|-------------------------------------------------|
|-------------------------------------------------|
|-------------------------------------------------|

Transcribed by PD
LM: may, 99





Bass Guitar Tab
---------------


Bass-tab

G-|--------5-----6-----------------------|
D-|-14\6-6---6-8-------------------------|
A-|-----------------555555-222222--------|
E-|-------------------------------444444-|

G-|----------------------------------|----------------------------------------|
D-|-----10--------11--------10/18-18\|-----10--------11-------10-11-13--13/18\|
A-|-11-----11-13-----13-11-----------|-11-----11-13-----13-11-----------------|
E-|----------------------------------|----------------------------------------|

G-|---------------------------------13\|--------------------------------------|
D-|-----10--------11----------13-------|-----10--------11----------13/18-18---|
A-|-11-----11-13-----13-13/15----15----|-11-----11-13-----13-13/15------------|
E-|------------------------------------|--------------------------------------|

G-|--------|--------|--------|----------------|
D-|--------|--------|--------|----------------|
A-|--------|-13\8---|--------|----------------|
E-|-6------|------6-|--6---6-|-2----3----5--6-|

G-|--------|--7/------|------------|----------|
D-|--------|--5/10\---|-----8--8---|----------|
A-|--------|----------|------------|----------|
E-|-1/6----|--------6-|-6--6-------|-9\1--1---|

G-|---------------------------------------------------------------------------|
D-|---------------------------------------------------------------------------|
A-|---------------------------------------------------------------------------|
E-|-1/11-11-11-11-11-11-11---11-10-10-10-10-10-10---10-9-9-9-9-9-9------------|

G-|---------------------------------------------------------------------------|
D-|-----10--------11----------------------------------------------------------|
A-|-11-----11-13-----13---------------------------------------------3---------|
E-|---------------------11-11-11-11-11-11-11-11-7-7-7-7-7-7-7-7-4-4---4-4-4-4-4

G-|-------------------------------13---|--------------------------------------|
D-|-----10--------11--------10/13------|-----10--------11--------10/18-18\----|
A-|-11-----11-13-----13-11-------------|-11-----11-13-----13-11---------------|
E-|------------------------------------|--------------------------------------|

G-|---------------------------------13\---|-----------------------------------|
D-|-10-----10-11-----11----10-11-13-------|-----10----------------------------|
A-|-----11--------13----11----------------|-11-----11-13---13-----------------|
E-|---------------------------------------|-----------------------------------|

G-|---------|----14-------------|-----------|-------|----------------10-5-5---|
D-|---------|-12----------------|-----------|-------|--------5----------------|
A-|-----3---|--------8--6-5-----|-----------|-------|-\55---5--3--5-----------|
E-|-3-------|---------------8-6-|-6---6-5/6-|-3-----|----3------------------6-|

G-|---------------------------------------------------------------------------|
D-|---8/10-8---7--------------------------------------5---5---5---------------|
A-|-8------------5--3--3--5-7-5---3---3---3-1---3-----------------------------|
E-|---------------------------------5---------------3---3---3---3-------------|

G-|---------------------------------------------------------------------------|
D-|------------------------------------------------------10--------11---------|
A-|---8-8-8-8-8-8-----7-7-7-7-7-7-----6-6-6-6-6-6----11-----11-13-----13------|
E-|-7-------------------------------------------------------------------------|

G-|---------------------------------------------------------------------------|
D-|---------------------------------------------------------------------------|
A-|---------------------------------------------------------------------3-----|
E-|-10-10-10-10-10-10\---7-7-7-7-7-7---3-3-3-3-3-3-3-3-3-3-3-3-3-3-3-3--------|

G-|---------7-7-------------2-------|-7-7-----7-7-----------------------------|
D-|-----7-7-----5-5-------2-------2-|-----7-7-----7-7-------------------------|
A-|-5-5-------------0-0-4-----0-4---|-----------------0-0-0-2-3-3-4-4---------|
E-|---------------------------------|-----------------------------------------|

G-|-------------------------|-----------------------------|-------------------|
D-|-------------------------|-----------------------------|-------------------|
A-|-5---5-----9---9-7-------|---------1-------1-1-1-4-6-7-|-------------------|
E-|---5---5-7---7-----7-7-7-|-x-2-2-----2-2---------------|-2--2-2--2-2-2-----|

G-|--------|------------|-10\---|-----------------|---------|-6~~~---|-8-~~~--|
D-|--------|------------|--8\---|-8\--------------|---------|-8~~~---|-11~~~--|
A-|-12\8---|-13b15rbrbr-|-------|-----------------|---------|--------|--------|
E-|------6-|------------|-----6-|----2---3---5--6-|-1/6-----|--------|--------|

G-|---------------|--------|
D-|---------------|--------|
A-|---------------|--------|
E-|-2---3---15\-1-|-6/9\6/-|

G-|------------------------------------------------|
D-|------------------------------------------------|
A-|------------------------------------------------|
E-|-11-11-11-11-11----10-10-10-10-10----9-9-9-9-9--|

G-|---------------------------------------------------------------------------|
D-|-----10--------11----------------------------------------------------------|
A-|-11-----11-13-----13---------------------------------------------3---------|
E-|---------------------10-10-10-10-10-10-10-10-7-7-7-7-7-7-7---4-4---4-4-4---|

G-|-------------------------------------|-------------------------------13\---|
D-|-------10--------11--------10/18--18\|-----10--------11--------11-13-------|
A-|-6/11-----11-13-----13-11------------|-11-----11-13-----13-11--------------|
E-|-------------------------------------|-------------------------------------|

G-|----------------------------------------|----------------------------------|
D-|-----10--------11----13-11-10----10/18\-|-----10--------11----10-----------|
A-|-11-----11-13-----13----------11--------|-11-----11-13-----13--------------|
E-|----------------------------------------|------------------------13\4--4---|

PD juni 25, 1995






harmonies (only highlights)

 Bicycle, bicycle, bicycle   Bicycle, bicycle, bicycle
|-6-3-B4---6-2-B3---6-1-B2-|--5-2-B3---7-2-B4---8-4--2--|
|-8-4-G0---7-3-D4---9-5-G1-|--7-3-G2---7--4-0---1-G1-G1-|
|-8-3--0---7-3-D4--10-5-D3-|--7-2-D4---8--4-D4--1-1--1--| the bottom part at
|--------------------------|--7-7--7---4--4-4---1-1--1--| 0:50 goes like this:
|-6-6--6---5-5--5---8-8--8-|--5-5--5---2--2-2--E4-E4-E4-| bi-i-i-icycle
|-6-6--6---6-6--6---6-6--6-|-------------------------------6-8-10-8-6-6-|

 Bicycle races are coming your way   Fat bottomed girls will be riding today
|----------------------------------|----------------------------------------|
|-6-6--6--6-6---6---5-5----8----8--|--6---6---6-----6----6---11--8--8--6-8--|
|-7-7--7--7-7---7---5-5----9----9--|--7---7---7-----7----7---12--9--9--7-9--|
|-8-8--8--8-5---8---8-8---10---10--|--8---8---8-----8----8---12-10-10--5-10-|
|1010-10-1010--10--1313---13---13--|-10--10--10----10---10---13-13-13-10-13-|
|----------------------------------|----------------------------------------|
Tr: PD, 2000
© Copyright 2004-06 JumboJimbo.com
Please note that the lyrics collection is provided for private education/information purposes only. You are advised to confirm your compliance with the appropriate local copyright regulations before using any of the material provided by any Internet lyrics site. The lyrics/chords/tabs sheets represent contributors' interpretations of the material and may not be identical to the original versions, which are copyright their respective owners.