Krawhitham
Words:Unknown
Music:Unknown
Performed By:  Aerosmith
Copyright:Unknown
Jumbo Jimbo's
Song Lyrics Archive
Search Database:
 


 

Intro-

      G       A                    Em    C    G   A  
   E--3-----------------------------0----0----3------------|
   B--3-------2---------------------0----1----3---2--------|
   G--4-------2---------------------0----0----4---2------2-|
   D--5-------2---2---2-------------2----2----5---2------2-|
   A--5-------0-----0---------------2----3----5---0--------|
   E--3------------------0---0---0------------3-------0----|

   E--------------0----0---|
   B--------------0----1---|
   G--------------0----0---|
   D--------------2----2---|
   A--------------2----3---|
   E--0--0----0------------|

Main Riff
   E-----------------------------------|
   B-----------------------------------|
   G-----------------------------------|
   D-----------------------0-2---------|
   A-----------1---1-1---3-------------|And this keeps repeating though out
   E-0-0---2-4-------------------------|the song.
© Copyright 2004-06 JumboJimbo.com
Please note that the lyrics collection is provided for private education/information purposes only. You are advised to confirm your compliance with the appropriate local copyright regulations before using any of the material provided by any Internet lyrics site. The lyrics/chords/tabs sheets represent contributors' interpretations of the material and may not be identical to the original versions, which are copyright their respective owners.