Big Ten Inch Record
Words:Unknown
Music:Unknown
Performed By:  Aerosmith
Copyright:Unknown
Jumbo Jimbo's
Song Lyrics Archive
Search Database:
 


 

chords used:
       D7     A7     E7     Bm7    A   
   E----2-----0-------0------2-----0------|
   B----1-----2-------3------3-----2------|
   G----2-----0-------1------2-----2------|
   D----0-----2-------2------4-----2------|
   A----------0-------2------2-----0------|
   E------------------0-------------------|

   D7                          
   Got me the strangest woman   
   A7
   Believe me this chick's no cinch 
   D7
   But I really get her goin'
   E7
   When I get out my big ten-inch
                D7 
   record of a band that plays the blues
             A7
   well a band that plays the blues
     Bm7           E7
   She just loves my big ten-inch
                               A
   record of her favorite blues

        This is what I came up with for the solo. It seems pretty accurate
but I'm still a bit cautious because it's the first time that I figured out
a somewhat difficult solo. This is the solo on the album, by the way. I'm
aware that their live versions(Unplugged,etc.)are a bit different in that
they contain solos by Joe, Brad and Tom Ghimbel(saxophone)but this is the
Toys in the Attic version and therefore, this is the only guitar solo.
You'll have to work out the timing on your own because all I did was put two
spaces in between notes. Anyway, here it is:
   solo(guitar 1)-
   E------------------------------------------------------|
   B------------------------------------------------------|
   G-------7p5-----5----------7p5-----5-------------------|
   D----7-------7-----7----7-------7-----7-----7----7-----|
   A------------------------------------------------------|
   E------------------------------------------------------|

   
   E------------------------------------5--5b-r-----------|
   B------------------------------------------------------|
   G------7p5-----5----------7p5-----5-------------7--7b--|
   D---7-------7-----7----7-------7-----------------------|
   A------------------------------------------------------|
   E------------------------------------------------------|

   
   E---------------------5--------5--8b-p5-----5----------|
   B------------------5-----5--8------------8-----8--7--7b|
   G--rp5--------5h7--------------------------------------|
   D-------7-7--------------------------------------------|
   A------------------------------------------------------|
   E------------------------------------------------------|

   
   E------------------------------5------5---------5------|
   B-rp5----------------7brp5--------7b-----r--7b-----r---|
   G------7--5--(5--7)---------7--------------------------|
   D------------------------------------------------------|
   A------------------------------------------------------|
   E------------------------------------------------------|

   E------5---------5-------------------------------------|
   B--7b-----r--7b-----8p7p5-------------------7//(1)-----|
   G--------------------------8p7p5------------7//(1)-----|
   D---------------------------------7--7------7//(1)-----|
   A------------------------------------------------------|
   E------------------------------------------------------|

The chord progression for the rest of the song is the same. The rest of the
lyrics go like this:

   Last night I tried to tease her
   I gave my love a little pinch
   But she said "Now stop that jivin'
   now whip out your big ten-inch

   (chorus)

   I'll cover her with kisses
   and when we're in a lover's clinch
   she gets all excited 
   but then she puts on my big ten-inch

   (chorus)

   My gal don't go for smokin'
   and liquor just makes her flinch
   Seems she don't go for nothin'
   'cept for my big ten-inch
© Copyright 2004-06 JumboJimbo.com
Please note that the lyrics collection is provided for private education/information purposes only. You are advised to confirm your compliance with the appropriate local copyright regulations before using any of the material provided by any Internet lyrics site. The lyrics/chords/tabs sheets represent contributors' interpretations of the material and may not be identical to the original versions, which are copyright their respective owners.