The Maple Leaf Rag
Words:N/A
Music:Scott Joplin, arr. for guitar Christopher Sung
Performed By:  Unknown
Copyright:Unknown
Jumbo Jimbo's
Song Lyrics Archive
Search Database:
 


 

A(V)  =  F-shape (4-string version) moved up, barre 5th fret


   A                          E                         A                 ?
E--------0--------0--------|--0--------0--------------|--------0--------0--------|
B-----2--------2-----------|--------0-----------------|-----2--------2-----------|
G--2--------2-----------1--|-----1--------------------|--2--------2-----------1--|
D--------2-----------------|--------------------2-----|--------2-----------------|
A--0-----------0-----1-----|--2-----------2-----------|--0-----------0-----1-----|
E--------------------------|--------0-----------0-----|--------------------------|
   1     .     .     .        2     .     .     .        3     .     .     .  

   E                          F           A              F           A
E--0--------0--------0-----|-----------1-----0-----0--|-----------1-----0-----0--|
B--------0-----------------|--------1-----------------|--------1-----------------|
G-----1--------------------|-----2--------------------|-----2--------------------|
D--------------------------|-----------------2-----2--|-----------------2-----2--|
A--2-----------2-----------|--------------------------|--------------------------|
E--------0-----------0-----|--1-----------0-----------|--1-----------0-----------|
   4     .     .     .        5     .     .     .        6     .     .     .  

   (arpeg.)    ?              ?           ?              ?
E--------------------------|--------------------------|--5-----5-----5-----5--5--|
B--------------------------|-----------------------7--|--4-----4-----4-----4-----|
G-----------2-----------5--|-----------8--------5-----|--5-----5-----5-----5-----|
D--------1-----------4-----|--------7-----4--7--------|--4-----4-----4-----4-----|
A--0--3--------3--6--------|--6--9--------------------|--------------------------|
E--------------------------|--------------------------|--------------------------|
   7     .     .     .        8     .     .     .        9     .     .     .  

   A(V)                       F              A           A
E--------------------------|--------------------------|--------------------------|
B-----5--7-----5--7--------|-----0--1-----0--2--------|--2-----0-----------------|
G-----------6--------------|-----------2-----------2--|-----2--------2-----------|
D--------7-----------7--7--|--------3-----------2-----|--------------------2-----|
A--0-----------0-----------|--------------0-----------|--0-----------0-----------|
E--------------------------|--1-----------------------|--------0-----------0-----|
   10    .     .     .        11    .     .     .        12    .     .     .  

(2)

   (barre 9th fret)           (barre 9th fret)           A(V)
E--------12-------11-------|--10-------9--------7-----|--------5-----------------|
B-----9-----9--12-------9--|--------9-----------------|--------------5--7--------|
G--------------------------|-----9-----------9-----9--|-----6-----6-----------6--|
D--------9-----------9-----|--------9-----------9-----|--------7-----------7-----|
A--------------------------|--------------------------|--0-----------------------|
E--0-----------0-----------|--0-----------0-----------|--------------------------|
   1     .     .     .        2     .     .     .        3     .     .     .

   A(V)
E--5-----------------------|-----0--4--------2-----0--|--4--------2--------2-----|
B--------5--7--------7-----|-----------0--3-----------|-----0--3--------3-----3--|
G-----6-----------6--------|--------1-----------1-----|--------1-----------1-----|
D--------7-----------7-----|--------------------------|--------------------------|
A--0-----------------------|--------------------------|--------------------------|
E--------------0-----------|--0-----------------------|--0-----------0-----------|
   4     .     .     .        5     .     .     .        6     .     .     .


E--------5-----------------|--5-----------------------|--------12-------11-------|
B--------------5--7--------|--------5--7--------7-----|-----9-----9--12-------9--|
G-----6-----6-----------6--|-----6-----------6--------|--------------------------|
D--------7-----------7-----|--------7-----------7-----|--------9-----------9-----|
A--0-----------------------|--0-----------------------|--------------------------|
E--------------------------|--------------0-----------|--0-----------0-----------|
   7     .     .     .        8     .     .     .        9     .     .     .


E--10-------9--------7-----|--------5-----------------|--5-----5-----4-----3-----|
B--------9-----------------|--------------5--7--------|--------5-----4-----3-----|
G-----9-----------9-----9--|-----6-----6-----------6--|--------6-----5-----4-----|
D--------9-----------9-----|--------7-----------7-----|--------------------------|
A--------------------------|--0-----------------------|--0-----------------------|
E--0-----------0-----------|--------------0-----------|--------5-----4-----3-----|
   10    .     .     .        11    .     .     .        12    .     .     .


E-----------2--------------|-----------2--------------|--------------------------|
B--------2--------2--------|--------3-----------3-----|--2--------2-----0--------|
G-----3--------------3-----|-----4--------------4-----|--2--------------1--------|
D--------2-----------2-----|--------4-----------4-----|--------1-----------0-----|
A--------------4-----------|--2-----------------------|--2-----------------------|
E--2-----------------------|--------------2-----------|--------------0-----------|
   13    .     .     .        14    .     .     .        15    .     .     .


E--------0-----0-----0-----|
B--------------------------|
G--2-----------------------|
D--------2-----------2-----|
A--0-----------------------|
E--------------0-----------|
   16    .     .     .

(3)


E--5--------5--------------|--5--------5--------------|--------------2--------2--|
B-----------------5--------|-----------------5-----5--|-----3--0--3--------3-----|
G--------------------6-----|--------------------6-----|--2-----2--------2--2-----|
D--------5-----------5-----|--------5-----------5-----|--0-----------------------|
A--------------------------|--------------------------|--------------0-----------|
E--5-----------5-----------|--5-----------5-----------|--------------------------|
   1     .     .     .        2     .     .     .        3     .     .     .


E--------2--------2-----2--|--5--------5--------------|--5--------5--------------|
B--0--3-----2--------0-----|-----------------5--------|-----------------5-----5--|
G--------2-----------2-----|--------------------6-----|--------------------6-----|
D--0-----------------------|--------5-----------5-----|--------5-----------5-----|
A--------------0-----------|--------------------------|--------------------------|
E--------------------------|--5-----------5-----------|--5-----------5-----------|
   4     .     .     .        5     .     .     .        6     .     .     .


E--------------2--------2--|--------2-----------2-----|--7--------7--------------|
B-----3--0--3--------3-----|--0--3--------------------|-----------------7--------|
G--2-----2--------2--2-----|--------2--2--------3-----|--------------------8-----|
D--0-----------------------|--0-----------------2-----|--------7-----------7-----|
A--------------0-----------|--------------0-----------|--------------------------|
E--------------------------|--------------------------|--7-----------7-----------|
   7     .     .     .        8     .     .     .        9     .     .     .


E--7--------7--------------|--------7--------7--------|--7--------7--------7-----|
B-----------------7-----7--|--------------8-----------|--------8--------8--------|
G--------------------8-----|-----9-----9-----------9--|-----9--------------------|
D--------7-----------7-----|--------9-----------9-----|--------9-----------9-----|
A--------------------------|--------------------------|--------------------------|
E--7-----------7-----------|--0-----------7-----------|--0-----------7-----------|
   10    .     .     .        11    .     .     .        12    .     .     .


E--10----10----9-----7-----|--2-----0--3-----2--------|--2-----0--2--------0-----|
B--9-----9-----9-----6-----|-----3--------------------|-----3-----------2-----3--|
G--10----10----10----7-----|--------------------2-----|--------1-----------0-----|
D--9-----9-----9-----6-----|--0-----------------1-----|--------------------------|
A--------------------------|--------0-----2-----------|--------------0-----------|
E--------------------------|--------------------------|--0-----------------------|
   13    .     .     .        14    .     .     .        15    .     .     .


E-----5------2--5--2--5----|
B--------------------------|
G---------2-----------2----|
D--0-----------------------|
A---------------0----------|
E--------------------------|
   16     .     .     .

(4)

E--5-----2-----5-----2-----|--5-----7--9-----7--5-----|--0-----2-----------------|
B--------------------------|--7-----7--------------7--|--2--------2--------------|
G--------2-----------2-----|--------------------------|--------------------------|
D--0-----------------------|--0-----------0-----0-----|--------2-----------2-----|
A--------------0-----------|--------0-----------------|--0-----------------------|
E--------------------------|--------------------------|--------------0-----------|
   1     .     .     .        2     .     .     .        3     .     .     .


E-----0--2-----0--2--------|--0-----2-----------------|-----0--2--------2--------|
B-----------2--------------|-----------0--------------|-----------0--3--------2--|
G--------------------------|--------1-----------------|--------1-----------------|
D--------2-----------------|--------------------------|-----------------------2--|
A--0-----------------1-----|--2-----------------2-----|--------------------2-----|
E--------------0-----------|--------------0-----------|--0-----------0-----------|
   4     .     .     .        5     .     .     .        6     .     .     .


E-----0--2-----0--2--------|-----0--2-----0--2--------|--5-----2-----5-----2-----|
B-----------2-----------2--|-----------2--------------|--------------------------|
G--------------------------|--------------------------|--------2-----------2-----|
D--------2-----------2-----|--------2-----------2-----|--0-----------------------|
A--0-----------------------|--------------------------|--------------0-----------|
E--------------0-----------|--0-----------0-----------|--------------------------|
   7     .     .     .        8     .     .     .        9     .     .     .


E--5-----7--9-----7--5-----|--5-----2--------5--------|-----0--2-----0--2--------|
B--7-----7--------------7--|--2-----------5--------2--|-----------2--------------|
G--------------------------|--------------------------|-----------------------2--|
D--0-----------0-----0-----|--------2-----------2-----|--------2-----------2--4--|
A--------0-----------------|--0-----------------------|--0-----------------------|
E--------------------------|--------------------------|--------------0-----------|
   10    .     .     .        11    .     .     .        12    .     .     .


E--------------------------|--------------------------|--------------------------|
B-----0--------------0-----|-----0--2-----0--2--------|-----0--2--------0--------|
G--------2-----2--------2--|-----------2-----------2--|-----------2-----1--------|
D--------4-----3--------2--|--------2-----------2--1--|--------1--------------2--|
A--5-----------5-----5-----|--0-----------------------|--2-----------------2-----|
E--------------------------|--------------0-----------|--------------0-----------|
   13    .     .     .        14    .     .     .        15    .     .     .


E---------0-----0-----0----|
B--------------------------|
G--2-----------------------|
D--------------------------|
A--0------0-----2-----4----|
E--------------------------|
   16     .     .     .
© Copyright 2004-06 JumboJimbo.com
Please note that the lyrics collection is provided for private education/information purposes only. You are advised to confirm your compliance with the appropriate local copyright regulations before using any of the material provided by any Internet lyrics site. The lyrics/chords/tabs sheets represent contributors' interpretations of the material and may not be identical to the original versions, which are copyright their respective owners.