Lough Erin Shore
Words:N/A
Music:Unknown
Performed By:  The Corrs
Copyright:Unknown
Jumbo Jimbo's
Song Lyrics Archive
Search Database:
 


 

(Traditional)


keltik@eresmas.com


Standard Tunning

tab explanation:
p = pull-off
h = hammer-on
s = slide
~ = light vibrato



PART A
|------5--7--8--5~------5---7p5-----------------------------------|
|--------------------------------7--8--7--------------------------|
|---7---------------7---------------------7---5--4h5--7--9--7~----|
|-----------------------------------------------------------------|
|-----------------------------------------------------------------|
|-----------------------------------------------------------------|

PART B
|---10--7--5-------5--7--8s10-10--8p7--5----||---10--8---7s5---5-------------------|
|--------------8----------------------------||---------------------8---------------|
|-------------------------------------------||-------------------------7---9---5---|
|-------------------------------------------||-------------------------------------|
|-------------------------------------------||-------------------------------------|
|-------------------------------------------||-------------------------------------|

Remainder of song (by part, as above):

A B A B
A B A B
A B
© Copyright 2004-06 JumboJimbo.com
Please note that the lyrics collection is provided for private education/information purposes only. You are advised to confirm your compliance with the appropriate local copyright regulations before using any of the material provided by any Internet lyrics site. The lyrics/chords/tabs sheets represent contributors' interpretations of the material and may not be identical to the original versions, which are copyright their respective owners.