Cavatina
Words:N/A
Music:Stanley Myers, Arr. John Williams
Performed By:  John Williams
Copyright:Unknown
Jumbo Jimbo's
Song Lyrics Archive
Search Database:
 


 

Composed By: Stanley Myers
Original Arrangement By John Williams - 1971 Transcribed by: Steve J. McWilliam - 
1979 TablEdited by: Steve J. McWilliam - 2000

Tuning : E A D G B E 	Time Signature: 3/4

  |       |       |          |       |       |          |       |       |         
||7------------------------|-7------------------------|-----9--------------------|
|*------------5------------|-------------9------------|-1012--------10-----------|
||--------4-------4--------|---------8-------8--------|---------9-------9--------|
||----6---------------6----|-----6---------------6----|-----11--------------11---|
|*-------------------------|-6------------------------|--------------------------|
||0------------------------|--------------------------|-9------------------------|

  |       |       |          |       |       |          |       |       |         
|--------------------------|---7-9--------------------|---------------------7----|
|-------------10-----------|-10----------10-----------|-----------------------10-|
|---------9-------9--------|---------9-------9--------|-------------8------------|
|-----11--------------11---|-----7---------------7----|---------7-------7--------|
|-9------------------------|--------------------------|-----9---------------9----|
|--------------------------|-7------------------------|-7------------------------|

  |       |       |          |       |       |          |       |       |         
|-7-----------4------------|---------------------5-4--|-4------------------------|
|---------4-------4--------|-------------3------------|-------------2------------|
|-----4---------------4----|---------4-------4--------|---------2-------2--------|
|--------------------------|-----6--------------------|-----2---------------2----|
|--------------------------|--------------------------|-0------------------------|
|-0------------------------|-0------------------------|--------------------------|

  |       |       |          |       |       |          |       |       |         
|-2---------------------0--|-2------------------------|-0------------------------|
|-------------2------------|-------------0------------|-------------0------------|
|---------2-------2--------|---------0-------0--------|---------0-------0--------|
|-----4---------------4----|-----0---------------0----|-----2---------------2----|
|-5------------------------|--------------------------|-3------------------------|
|--------------------------|-3------------------------|--------------------------|

  |       |       |          |       |       |          |       |       |         
|-0------------------------|---------2----------------|-0------------------------|
|-------------0------------|-----------------4--------|---------------------0----|
|---------2-------2--------|---------2---4---2--------|-2-------1-------1--------|
|-----4---------------4----|-----4---------------4----|-----4-------2------------|
|-2------------------------|-2------------------------|--------------------------|
|--------------------------|--------------------------|-0------------------------|

  |       |       |          |       |       |          |       |       |         
|-0-------0---4---7---11---|-12-----------------------|-12------------------119--|
|-----0--------------------|-------------9------------|-------------9------------|
|--------------------------|---------9-------9--------|---------9-------9--------|
|--------------------------|-----9---------------9----|-----9---------------9----|
|--------------------------|--------------------------|-9------------------------|
|--------------------------|-9------------------------|--------------------------|

  |       |       |          |       |       |          |       |       |         
|-9---111211---------------|-----------------9---7----|-5------------------------|
|-------------11-----------|-------------9------------|-------------2------------|
|-----------------11-------|---------8----------------|---------2-------2--------|
|---------------------9----|-----9--------------------|-----2---------------2----|
|--------------------------|--------------------------|--------------------------|
|--------------------------|-7------------------------|-2------------------------|

  |       |       |          |       |       |          |       |       |         
|---------7----------------|--------------------------|-----------------0---2---||
|-10--------------7--------|-9------------------------|-------------3-----------||
|-------------8------------|-------------8------------|---------4---------------||
|---------7-------7--------|---------9-------9--------|-----2-------------------||
|-----9---------------9----|-----7---------------7----|-------------------------||
|-7------------------------|-0------------------------|-0-----------------------||

>1|       |       |          |       |       |          |       |       |         
|-4------------------------|-5------------------------|-6------------------------|
|-------------2------------|-------------7------------|-------------7------------|
|---------2-------2--------|---------6-------6--------|---------6-------6--------|
|-----2---------------2----|-----7---------------7----|-----8---------------8----|
|-0------------------------|-5------------------------|-7------------------------|
|--------------------------|--------------------------|--------------------------|

  |       |       |          |       |       |          |       |       |         
|-7-----------2------------|-7-----------2------------|-12-----------------------|
|-----0---4-------4---0----|-----0---3-------3---0----|---------0-------0--------|
|--------------------------|--------------------------|-----0-------9-------0----|
|--------------------------|-0------------------------|--------------------------|
|-6------------------------|--------------------------|--------------------------|
|--------------------------|--------------------------|-8------------------------|

  |       |       |          |       |       |          |       |       |         
|-12--8---8---11--11--7----|-7---8---8---5---7---8----|-12-----------------------|
|--------------------------|--------------------------|--------------------------|
|--------------------------|--------------------------|-9---5---5---8---8---4----|
|-10-----------------------|--------------------------|--------------------------|
|-9------------------------|--------------------------|--------------------------|
|-7------------------------|--------------------------|--------------------------|

  |       |       |          |       |       |          |       |       |         
|--------------------------|--------------------------|-------------2------------|
|--------------------------|--------------------------|---------2-------2--------|
|-4---5--------------------|--------------------------|--------------------------|
|---------7---4---2--------|--------------------------|-----2---------------2----|
|---------------------3----|-2---0---------------0----|-1------------------------|
|--------------------------|---------3---2---3--------|--------------------------|

  |       |       |          |       |       |          |       |       |         
|-------------2------------|--------------------------|--------------------------|
|---------3----------------|-------------3------------|--------------------------|
|--------------------------|---------3-------3--------|--------------------------|
|-----4--------------------|-----3---------------3----|-3-------1-------1---3----|
|-2---------------2---4----|-5-------5----------------|-----1-------1------------|
|-------------2------------|-4------------------------|-2-------2----------------|

  |       |       |          |       |       |          |       |       |         
|-------------3------------|--------------------------|-------------0------------|
|---------4-------4--------|--------------------------|---------0-------0--------|
|-----3---------------3----|--------------------------|-4------------------------|
|-5------------------------|-8-------6-------6---8----|--------------------------|
|-4------------------------|-----6-------6------------|-----2---------------2----|
|--------------------------|-7------------------------|-4------------------------|

  |       |       |          |       |       |          |       |       |         
|--------------------------|--------------------------|--------------------------|
|-------------5------------|-0------------------------|-----------------------2--|
|-4-------4-------4-----6--|-------------2------------|-------------2------------|
|--------------------------|---------1-------1--------|---------1-------1--------|
|-----2---------------2----|-----2---------------2----|-----2---------------2----|
|-4------------------------|-2------------------------|-2------------------------|

  |       |       |          |       |       |          |       |       |         
|--------------------------|--------------------------|-------------0------------|
|-0------------------------|--------------------------|---------0-------0--------|
|-------------1------------|-----6--------------------|-----2---------------2----|
|---------0-------0--------|---------7---6------------|-2------------------------|
|-----2---------------2----|-0---------------9---7----|--------------------------|
|-0------------------------|--------------------------|-2------------------------|

  |       |       |          |       |       |          |       |       |         
|--------------------------|--------------------------|-------------0---4---5---||
|-------------4---0--------|--------------------------|-0-------0---------------*|
|-----2---------------2----|-2-------1-----------1----|-----1-------------------||
|---------4-------1--------|-2---4-------1---2--------|-------------------------||
|-2------------------------|--------------------------|-------------------------*|
|--------------------------|-0------------------------|-------------------------||

>2|       |       |          |       |       |          |       |       |         
|-4------------------------|-2---------------------0--|-2------------------------|
|-------------2------------|-------------2------------|-------------0------------|
|---------2-------2--------|---------2-------2--------|---------0-------0--------|
|-----2---------------2----|-----4---------------4----|-----0---------------0----|
|-0------------------------|-5------------------------|--------------------------|
|--------------------------|--------------------------|-3------------------------|

  |       |       |          |       |       |          |       |       |         
|-0------------------------|--------------------------|---------2----------------|
|-------------0------------|-5------------------------|-5---------------4--------|
|---------0-------0--------|-------------2------------|---------2---4---2---4----|
|-----2---------------2----|---------2-------2--------|-----4--------------------|
|-3------------------------|-----4---------------4----|-2------------------------|
|--------------------------|-2------------------------|--------------------------|

  |       |       |          |       |       |          |       |       |         
|-0------------------------|-------------0---4---7----|-11------12---------------|
|--------------------------|-0-------0----------------|-9------------------------|
|-2-------1-----------1----|-----1--------------------|-9------------------------|
|-----4-------1---2--------|--------------------------|-9------------------------|
|--------------------------|--------------------------|--------------------------|
|-0------------------------|--------------------------|-9------------------------|

  |       |       |          |       |       |          |       |       |         
|--------------------------|-----2-4-2----------------|-0------------------------|
|-4-------5----------------|-5---------------5--------|--------------------------|
|-2------------------------|-2------------------------|-2-------4----------------|
|-2------------------------|-4------------------------|-4-------6----------------|
|-4------------------------|-2------------------------|--------------------------|
|-2------------------------|--------------------------|-0------------------------|

  |       |       |         
|--------------------------|
|--------------------------|
|--------------------------|
|--------------------------|
|--------------------------|
|--------------------------|
© Copyright 2004-06 JumboJimbo.com
Please note that the lyrics collection is provided for private education/information purposes only. You are advised to confirm your compliance with the appropriate local copyright regulations before using any of the material provided by any Internet lyrics site. The lyrics/chords/tabs sheets represent contributors' interpretations of the material and may not be identical to the original versions, which are copyright their respective owners.