Cluck Old Hen
Words:N/A
Music:Unknown
Performed By:  Alison Krauss
Copyright:Unknown
Jumbo Jimbo's
Song Lyrics Archive
Search Database:
 


 

Cluck Old Hen
print w/Courier


(instrumental)
(Traditional)

Adam Steffey Solo: Alison Kraus "Every Time You Say Goodbye"
Tuning: G D A E
Time Signature: 4/4


 |   |   |   |    |   |   |   |    |   |   |   |
|3---2---0-------|--0-2-5-0---3---|--2-----0-------|
|0-----------0-4-|5---------0---0-|0---0-0---6-3-4-|
|2---------------|----------------|----------------|
|2---------------|----------------|----------------|

 |   |   |   |    |   |   |   |    |   |   |   |
|----2h3---5-----|3---2-2-0-----0-|--0-2-5-0---3---|
|0-------0---0-0-|----------5-4---|5---------0---0-|
|----------------|----------------|----------------|
|----------------|----------------|----------------|

 |   |   |   |    |   |   |   |    |   |   |   |
|--2-----0-------|----------------|------0---------|
|0---0-0---6-3-4-|0-----------0---|3-4-4---3-2-0---|
|----------------|--5-2---2-5-----|--------------4-|
|----------------|----------------|----------------|

 |   |   |   |    |   |   |   |    |   |   |   |
|----------------|0---0---0-------|----------------|
|------2-0---4/7-|----------6-3-4-|0-----------0---|
|2-4-5-----------|----------------|--5-2---2-5-----|
|----------------|----------------|----------------|

 |   |   |   |    |   |   |   |    |   |   |   |
|------0---------|----------------|2---1---0-------|
|3-4-4---3-2-0---|------2-0-2-3-4-|--4---4---6-3-4-|
|--------------4-|2-4-5-----------|----------------|
|----------------|----------------|----------------|

 |   |   |   |
|----2h3---5-----|
|0-------0---0-0-|
|----------------|
|----------------|

 |   |   |   |    |   |   |   |    |   |   |   |
|3---2-2-0-----0-|--0-2-5-0---5/7-|--5-----3-----2-|
|----------5-4---|5---------0-----|0---0-0---0-0---|
|----------------|----------------|----------------|
|----------------|----------------|----------------|

 |   |   |   |    |   |   |   |    |   |   |   |
|----5-3-2-0-3-2-|0---3---2---2---|0-------------0-|
|0-0-------------|--6---6---6---6-|--6-5-7-6-6-3---|
|----------------|----------------|----------------|
|----------------|----------------|----------------|

 |   |   |   |    |   |   |   |    |   |   |   |
|----------------|----------------|------0---------|
|3-4-3-4-0-------|0-----------0---|3-4-4---3-2-0---|
|----------4-2-4-|--5-2---2-5-----|--------------4-|
|----------------|----------------|----------------|

 |   |   |   |    |   |   |   |    |   |   |   |
|--------------0-|0---0---0-------|----------------|
|------2-0---4---|----------6-3-4-|0-----------0---|
|2-4-5-----------|----------------|--5-2---2-5-----|
|----------------|----------------|----------------|

 |   |   |   |    |   |   |   |    |   |   |   |
|------0---------|----------------|----------------|
|3-4-4---3-2-0---|------2-0-2-3-2-|0---2---0-------|
|--------------4-|2-4-5-----------|--5---5---5-2---|
|----------------|----------------|--------------6-|

 |   |   |   |
|----------------|
|----------------|
|----------------|
|2---------------|
© Copyright 2004-06 JumboJimbo.com
Please note that the lyrics collection is provided for private education/information purposes only. You are advised to confirm your compliance with the appropriate local copyright regulations before using any of the material provided by any Internet lyrics site. The lyrics/chords/tabs sheets represent contributors' interpretations of the material and may not be identical to the original versions, which are copyright their respective owners.