Peter Gunn Theme
Words:N/A
Music:Henry Mancini
Performed By:  The Blues Brothers
Copyright:© 1958 Northridge Music
Jumbo Jimbo's
Song Lyrics Archive
Search Database:
 


 

Section 1	

 E|--------------------------------------------------|
 B|--------------------------------------------------|
 G|--------------------------------------------------|
 D|--------------------------------------------------|
 A|--------------------------------------------------|
 E|--0--0--2--0--3--0--5--3--0--0--2--0--3--0--5--3--|
                                              (Repeat)

Section 2

 E|--------------------7--7--7--7--------------------|
 B|--8---8--8--8-------8--8--8--8--------------------|
 G|--7---7--7--7-------7--7--7--7--------------------|
 D|--9---9--9--9---9---9--9--9--9--------------------|
 A|--7-------------7---------------------------------|
 E|--------------------------------0--0--3--0--5--0--|


 E|--------------------7--7--7--7--------------------|
 B|--8---8--8--8-------8--8--8--8--------------------|
 G|--7---7--7--7-------7--7--7--7--------------------|
 D|--9---9--9--9---9---9--9--9--9--------------------|
 A|--7-------------7---------------------------------|
 E|--------------------------------0--0--3--0--5--0--|


 E|--------------------------------------------------|
 B|----------------2--3--2--3--2--3--2--3--2--3------|
 G|--------0--2----3--4--3--4--3--4--3--4--3--4---4--|
 D|--2--4--------------------------------------------|
 A|--------------------------------------------------|
 E|--------------------------------------------------|
      H             Sl    Sl    Sl    Sl    Sl

 E|--------------------------------------------------|
 B|--------------------------------------------------|
 G|---2--0-------------------------------------------|
 D|---------2--0-------------------------------------|
 A|--------------------------------------------------|
 E|---------------0--0--2--0--3--0--5--3--0--0--2--0-|

Section 3	

 E|-----------------------------3--------------------|
 B|--5--5--5--5--5--5--3--------3--5--5--5--3--------|
 G|-----------------------4--------------------4-----|
 D|--------------------------5--------------------5--|
 A|--------------------------------------------------|
 E|--------------------------------------------------|
                     Po                   Po

 E|--------------------------------------------------|
 B|-------5--5--5--3---------------------------------|
 G|--4----------------4--3--(5)---(5)---3---2---0----|
 D|--5-----------------------------------------------|
 A|--------------------------------------------------|
 E|--------------------------------------------------|
                 Po     BU              BDPo  Po

 E|--------------------------------------------------|
 B|--------------------------------------------------|
 G|---3--(5)--(5)---3---2---0---2---0----------------|
 D|-------------------------------------2---0--------|
 A|--------------------------------------------------|
 E|--------------------------------------------------|
     BU            BU Po  Po     (Back To Section One)
© Copyright 2004-06 JumboJimbo.com
Please note that the lyrics collection is provided for private education/information purposes only. You are advised to confirm your compliance with the appropriate local copyright regulations before using any of the material provided by any Internet lyrics site. The lyrics/chords/tabs sheets represent contributors' interpretations of the material and may not be identical to the original versions, which are copyright their respective owners.