Arrival Of The Queen Of Sheba
Words:N/A
Music:George Frederic Handel
Performed By:  Unknown
Copyright:Unknown
Jumbo Jimbo's
Song Lyrics Archive
Search Database:
 


 

From the opera Salomo (Solomon)
                                                                 
Transcribed, arranged and published by
Christian Ottem (christian_ottem@hotmail.com)

This is not only the main violin part of the piece, but I've included some 
horn, bass, and even a little bit of the 2. Violin.
The whole piece is mainly in 16th notes but if you've heard the record 
you'll know how it should be.



E||--6-------6-------6-------6-------|----6-5-3-------------------1-3-5|
B||----6---6---6---6---6---6---6---6-|----------6-4-3---3---1-3-4------|
G||------7-------7-------7-------7---|--5-------------5---3------------|
D||----------------------------------|---------------------------------|
A||----------------------------------|---------------------------------|
E||----------------------------------|---------------------------------|



--6-------6-------6-------6-------|--5-3-1-3----0--1--------------|
----6---6---6---6---8---8---8---8-|----------1--------1-3-1-3-1-3-|
------7-------7-------5-------5---|-------------------------------|
----------------------------------|-------------------------------|
----------------------------------|-------------------------------|
----------------------------------|-------------------------------|



------------------1-------1-------|----------------------------------|
--1-------1---------3---3---3---3-|--4-------4-------3---------1-3-4-|
----2---2---2---2-----3-------3---|----5---5---5---5-----0-2-3-------|
------3-------3-------------------|------7-------7-----3-------------|
----------------------------------|----------------------------------|
----------------------------------|----------------------------------|



--1-------1-------1-------1-------|--------------------------------|
----3---3---3---3---1---1---1---1-|--3-------3-------3-------3-----|
------3-------3-------2-------2---|----3---3---3---3---2---2---2---|
----------------------------------|------5-------5-------3---------|
----------------------------------|--------------------------------|
----------------------------------|--------------------------------|



--6-3---3-6-3---3-6-------6-------|------3-1-------------------------|
------4-------4-----6---6---6---6-|--4-6-----4-3-1-------1-----------|
----------------------7-------7---|----------------3-2-3---3-2-0-----|
----------------------------------|------------------------------3-1-|
----------------------------------|----------------------------------|
----------------------------------|----------------------------------|



--------------------------------1-|----------------------------------|
--------------------1---3-1-4-3---|--4-6-4-6-8-6-4-----------4-6-4-6-|
--------0---2-0-3-2---3-----------|----------------7-5-7-5-7---------|
--0-3-1---3-----------------------|----------------------------------|
----------------------------------|----------------------------------|
----------------------------------|----------------------------------|



----------------------------------|----------------------------------|
--8-6-8-6-------------------6---6-|--8-6-8-6-------------------6---6-|
----------8-7-8-7-5-7-5-7-8---8---|----------8-7-8-7-5-7-5-7-8---8---|
----------------------------------|----------------------------------|
----------------------------------|----------------------------------|
----------------------------------|----------------------------------|



------------5---6-5------6-----|------------------------|
----6---8-6---8------8-6-------|------------------------|
--7---8---------------------8--|--7--5------------------|
-------------------------------|-------8----7--8--------|
-------------------------------|---------8--------------|
-------------------------------|------------------------|



-------------------1-------|-------------------1-3-1-----|
----1-3-4-3--1----------4--|--3--4-3-4--1--3-4--------4--|
--3-------------3----------|-----------------------------|
---------------------------|-----------------------------|
---------------------------|-----------------------------|
---------------------------|-----------------------------|



--------------------------|--6-------6-------6-------6-------|
--3--4-3-4--1--3--1-------|----6---6---6---6---6---6---6---6-|
---------------------3----|------7-------7-------7-------7---|
--------------------------|----------------------------------|
--------------------------|----------------------------------|
--------------------------|----------------------------------|



----6-5-3-1----------------|--1----3-1--------3----3--|
------------4-3-1-3--------|-----------4-3-4----------|
--5------------------------|--------------------------|
---------------------------|--------------------------|
---------------------------|--------------------------|
---------------------------|--------------------------|



--1-----1------------1----1--|---------------------1----------|
----4-3---4-3-1-4-3----------|--4-3-1-4-3-1---3-1---------1-3-|
-----------------------------|--------------3---------2-3-----|
-----------------------------|--------------------------------|
-----------------------------|--------------------------------|
-----------------------------|--------------------------------|



-----1-------------1--1--1--|--1-------1-------1-------1---1-5-|
--1---------1-3-1-----------|----1---1---1---1---1---1---1-----|
--------2-3-----------------|------2-------2-------2-----------|
----------------------------|----------------------------------|
----------------------------|----------------------------------|
----------------------------|----------------------------------|


--3-1-0-------------------------0-|--1----------------|
--------3-1-----------------1-3---|-------------------|
------------3-2-0-2---0-2-3-------|-------------------|
--------------------3-------------|-------------------|
----------------------------------|-------------------|
----------------------------------|-------------------|


-----------------------------|--------------------------|
-----------------------------|--------------------------|
-----------------------------|-----0-2-3--0--2--0-------|
---------------------0----2--|--3------------------3----|
--0--1-0-1-----0-1-3---3-----|--------------------------|
------------3----------------|--------------------------|


--------------------------|--5-------5-------5-------5-------|
--1-----1-----1-----1-----|----6---6---6---6---5---5---5---5-|
----2-----2-----0-----0---|------7-------7-------5-------5---|
--------------------------|----------------------------------|
--------------------------|----------------------------------|
--------------------------|----------------------------------|


----------------------------------|-----------------------3----|
--6-------6-------6-------6-------|------3---------------------|
----7---7---7---7---5---5---5---5-|--3-5---5-3-2-0-------------|
------8-------8-------7-------7---|----------------3-2---------|
----------------------------------|----------------------------|
----------------------------------|----------------------------|


--5--3--3--1--6--5--5--3--|--5-6-5-3-3-5-3-1-3-5-3-1-1-3-1-0-|
--------------------------|----------------------------------|
--------------------------|----------------------------------|
--------------------------|----------------------------------|
--------------------------|----------------------------------|
--------------------------|----------------------------------|


----0-----------------------------|----------------------------------|
--3---3-1---1---------------1---1-|--3-1-3-1-------------------1---1-|
----------3---3-2-0-2-0-2-3---3---|----------3-2-3-2-0-2-0-2-3---3---|
----------------------------------|----------------------------------|
----------------------------------|----------------------------------|
----------------------------------|----------------------------------|


----------------------------------|-----1----0--1----------|
--3-1-3-1-------------------1---1-|----------------1-------|
----------3-2-3-2-0-2-0-2-3---3---|--2---------------------|
----------------------------------|-------------------3----|
----------------------------------|------------------------|
----------------------------------|------------------------|


------1-3-1--------1-------|--------------------------|
--3-4--------4--3-------4--|--3--4-3-4-----3----------|
---------------------------|------------5-----5--3----|
---------------------------|--------------------------|
---------------------------|--------------------------|
---------------------------|--------------------------|


--6-----------6-----------6-----------6-----------|
-----6-----6-----6-----6-----6-----6-----6-----6--|
--------7-----------7-----------7-----------7-----|
--------------------------------------------------|
--------------------------------------------------|
--------------------------------------------------|


-----6--5--3--1-----------------------------|--------------------------|
-----------------4--3--1--3-----1--3--------|--------------------------|
--5--------------------------3--------3-----|--------------------------|
--------------------------------------------|--0-----------1--0--0-----|
--------------------------------------------|-----3--3--1-----------3--|
--------------------------------------------|--------------------------|


----------------------------------|---------------------------|
----------------------------------|---------------------------|
----------------------------------|-------------------3----2--|
--0-1-0-----0-------0-------------|------0-1-0----------------|
--------3-3---3-1-3---3-1-1-3-1-0-|--1-3--------3--1----------|
----------------------------------|---------------------------|


---------------------------|--3-------3-------3-------3---3-6-|
---------------------------|----3---3---3---3---3---3---3-----|
--0--2-0-2-----0-----------|------3-------3-------3-----------|
------------4-----0-----0--|----------------------------------|
---------------------1-----|----------------------------------|
---------------------------|----------------------------------|


--5-3-2-0---------------------0-2-|--3--------3-------3-------|
----------3-1-------------1-3-----|-------------4---4---4---4-|
--------------3-2-3-0-2-3---------|---------------5-------5---|
----------------------------------|---------------------------|
----------------------------------|---------------------------|
----------------------------------|---------------------------|


-------------------1-------|---------------------------|
--6--------6-3---3---3---3-|--4--------4-----1-4-1---1-|
---------------3-------3---|-------------5-2-------2---|
---------------------------|---------------------------|
---------------------------|---------------------------|
---------------------------|---------------------------|


-----------3-------3-------|--2------------------------|
--3----------3---3---3---3-|-----------3-------3-------|
---------------3-------3---|-------------3-0-3---3-0-3-|
---------------------------|---------------------------|
---------------------------|---------------------------|
---------------------------|---------------------------|


-----------5-2---2-5-2---2-|--3-------3-------3--1---------|
--4------------3-------3---|----3---3---3---3------4-3--1--|
---------------------------|------3-------3----------------|
---------------------------|-------------------------------|
---------------------------|-------------------------------|
---------------------------|-------------------------------|


---------------------|--6-3---3-6-3---3-6-------6-------|
---------------------|------4-------4-----6---6---6---6-|
--3----2----0--------|----------------------7-------7---|
---------------------|----------------------------------|
---------------------|----------------------------------|
---------------------|----------------------------------|


----------3-------3-------3-------|----------------------------------|
--8-----4---4---4---3---3---3---3-|--4-------4-------4-------4-------|
----8-5-------5-------3-------3---|----5---5---5---5---3-0-3---3-0-3-|
----------------------------------|------6-------6-------------------|
----------------------------------|----------------------------------|
----------------------------------|----------------------------------|


--4-3-1--------------------|-------------------3----1--|
--------4-3-1--------------|--------1------------------|
--------------3-1-0--------|--0-1-3---3--1--0----------|
---------------------------|---------------------------|
---------------------------|---------------------------|
---------------------------|---------------------------|


-----1---1--------6----4--|--3--4-3-4--1--3--1-------|
--4----4----3--4----------|---------------------4----|
--------------------------|--------------------------|
--------------------------|--------------------------|
--------------------------|--------------------------|
--------------------------|--------------------------|


6-3---3-6-3---3-8---0---8-------|--8-5---5-8-5---5-10----------10-------|
----4-------4-----8---8---8---8-|------6-------6------10----10----10--10|
----------------------------9---|------------------------11---------11--|
--------------------------------|---------------------------------------|
--------------------------------|---------------------------------------|
--------------------------------|---------------------------------------|


--10----------10----------11----------11----------|
-----11----11----11----11----11----11----11----11-|
--------12----------12----------12----------12----|
--------------------------------------------------|
--------------------------------------------------|
--------------------------------------------------|


11-8---8-11-8---8-13----------13----------|------------------------------|
-----9--------9------13----13----13----13-|------------------------6--4--|
------------------------14----------14----|--------10-12-10--8--7--------|
------------------------------------------|--12-13-----------------------|
------------------------------------------|------------------------------|
------------------------------------------|------------------------------|

---------------------------|------------------|--------------------------|
--3--4-3-4-----3-----------|------------------|--------------------------|
------------5-----5--3--2--|--3---------------|--------0-----------------|
---------------------------|------------------|--0-1-3---3---------------|
---------------------------|------------------|-------------1--0--1----3-|
---------------------------|------------------|----------------1--3----5-|



--6-------6---------|--8-------8---------------|-------------------------|
----6---6---6---6---|----8---8---8---8---------|----------3-0---3--------|
------7-------7-----|------8-------8-----------|--8-5---5-----0----------|
--------------------|--------------------------|------5------------------|
--------------------|--------------------------|-------------------------|
--------------------|--------------------------|-------------------------|


--------------------------|--1-------1---------------|
--1-------1---------------|----3---3---3---3---------|
----2---2---2---2---------|------3-------3-----------|
------3-------3-----------|--------------------------|
--------------------------|--------------------------|
--------------------------|--------------------------|



--3-0---0-3-0---0-8-5--5-8-5--5-|
------1-------1-----------------|
--------------------------------|
--------------------------------|
--------------------------------|
--------------------------------|


--13-10----10-13-10----10-13----------13----------|
--------11----------11-------13----13----13----13-|
--------------------------------14----------14----|
--------------------------------------------------|
--------------------------------------------------|
--------------------------------------------------|



--------------10----------10----------10----------|
--15-------11----11----11----10----10----10----10-|
-----15-12----------12----------10----------10----|
--------------------------------------------------|
--------------------------------------------------|
--------------------------------------------------|


--------------------------------------------------|
--11----------11----------11----------11----------|
-----12----12----12----12----10----10----10----10-|
--------13----------13----------12----------12----|
--------------------------------------------------|
--------------------------------------------------|

------------------------------------|--------------------------------1-|
-------8----------------1-----------|--------------------1---3-1-4-3---|
--8-10---10-8-7-5-3-2-3---3-2-0-----|--------0---2-0-3-2---3-----------|
--------------------------------3-1-|--0-3-1---3-----------------------|
------------------------------------|----------------------------------|
------------------------------------|----------------------------------|



----1---1-3-1---------------1---1-|--3-1-3-1-------------------1---1-|
--4---4-------4-3-1-3-1-3-4---4---|----------4-3-4-3-1-3-1-3-4---4---|
----------------------------------|----------------------------------|
----------------------------------|----------------------------------|
----------------------------------|----------------------------------|
----------------------------------|----------------------------------|



--3-1-3-1-------------------------|----1---3-1-5-3-6-5--3-1-6-----|
----------4-3-4-3-1-3-1-3-4-3-4---|--3---4---------------------4--|
--------------------------------5-|-------------------------------|
----------------------------------|-------------------------------|
----------------------------------|-------------------------------|
----------------------------------|-------------------------------|



---------------------1--|------||
--3--1---------------3--|------||
-------3----2--3-----3--|------||
---------3--------3--3--|------||
---------------------1--|------||
------------------------|------||
© Copyright 2004-06 JumboJimbo.com
Please note that the lyrics collection is provided for private education/information purposes only. You are advised to confirm your compliance with the appropriate local copyright regulations before using any of the material provided by any Internet lyrics site. The lyrics/chords/tabs sheets represent contributors' interpretations of the material and may not be identical to the original versions, which are copyright their respective owners.