La Madrugada (The Early Morning Dawn)
Words:N/A
Music:Jerry Reed Hubbard
Performed By:  Chet Atkins
Copyright:Unknown
Jumbo Jimbo's
Song Lyrics Archive
Search Database:
 


 

this is part of a 'relatively easy' piece played recorded by Chet   
Atkins, called "La Madrugada" or "The Early Morning Dawn".  This is the 
first movement.

timing is 4/4 in C major
hint:  ALL NOTES ARE 1/8 notes - in this section without exception

La Madrugada, by Jerry Reed Hubbard, as recorded by C Atkins

1
E--3-------------3--|--3---------1-0---|--------0---------|
B--1-------------1--|--0---------0-0-3-|--3-----3-1-------|
G--0-0-0-0-0-0-0-0--|--0-0-0-0-0-0-0-0-|--0-0-0-0-0-0-0-0-|
D-------------------|------------------|------------------|
A--3-------------3--|--2---------2-2---|--1-----1-1-------|

2
E----------0---3----|--3-------------3-|--3-----1-0-----3--|
B--1---1---1---1----|--1-------------1-|--0-----0-0-----0--|
G--0-0-0-0-0-0-0-0--|--0-0-0-0-0-0-0-0-|--0-0-0-0-0-0-0-0--|
D------3---3--------|------------------|-------------------|
A--0-----------0----|------------------|-------------------|
E-------------------|--3-------------1-|--0-----0-0--------|

3
E--8-------7--------|--5-------7--------|
B--6-------6--------|--6-------6--------|       REPEAT UNTIL END OF 
G--0-0-0-0-0-0-0-0--|--0-0-0-0-0-0------|       BAR 1 OF ROW 2
D--0-------0--------|--0-------0-----0--|
A-------------------|--------------8----|


ok the last bar to be played after it's second repeat is: (then follows 
the next sets of bars)
(h) = half note
(q) = quart. note
all other notes are 1/8 notes

(first bar of row2)
E---------0---3---|-3-------3-----0-|-1---0-----------|-----------------|
B-1---1---1---1---|-1-------0-----0-|-1---1---1-----1-|-1-------1-----1-|
G-0-0-0-0-0-0-0-0-|-0-0-0-0-0-0-0-0-|-0-0-0-0-0-0-0-0-|-0-0-0-0-0-0-0-0-|
D-----3---3-------|-----------------|-----3---0-----3-|-2-------3-----3-|
A-0-----------0---|-3-------2-----2-|-0---------------|-3-------3-----3-|
E-----------------|-----------------|---------3-----3-|-----------------|

E-----------------|-----0-------0---|-----0-------0---|----0----0---0---|
B-1(h)---5(q)-8(q)|-6----6--6----6--|-0----6--6----6--|-8---8--------8--|
G-0(h)------------|--3----3--5----5-|--5----5--4----4-|--7---7--------7-|
D-2(h)------------|---0-------0-----|---0-------0-----|---5---0---------|
A-3(h)------------|-----------------|-----------------|-----------7-----|
E-----------------|-6-------5-------|-3-------3-------|-8---------------|


E-----0----0---0---|-----0------0---|-----0------0---|----0-----0---0---|
B-8----8--------8--|-6----6--6---6--|-0----6--6---6--|-8---8---------8--|
G--7----7--------7-|--3----3--5---5-|--5----5--4---4-|--7---7---------7-|
D---5----0---------|---0-------0----|---0-------0----|---5---0----------|
A------------7-----|----------------|----------------|------------7-----|
E-8----------------|-6-------5------|-3-------3------|-8----------------|
© Copyright 2004-06 JumboJimbo.com
Please note that the lyrics collection is provided for private education/information purposes only. You are advised to confirm your compliance with the appropriate local copyright regulations before using any of the material provided by any Internet lyrics site. The lyrics/chords/tabs sheets represent contributors' interpretations of the material and may not be identical to the original versions, which are copyright their respective owners.