Summertime
Words:Du Bose Heyward and Ira Gershwin
Music:George Gershwin
Performed By:  Ella Fitzgerald (1960), Louis Armstrong, Frank Sinatra, Sarah Vaughan, Willie Nelson, Peter Gabriel, Courtney Pine
Copyright:Unknown
Jumbo Jimbo's
Song Lyrics Archive
Search Database:
 


 

                        Summertime                1 of 3



       &
        Em             Am              Em   Em               Em
E--7---|-7-----------|---5-----5-7---|------0------|-------0---7---|
B----8-|---------8---|-------8-------|-8-----------|---0---------8-|
G------|-------------|---------------|-------------|---------------|
D------|----9------9-|-----7-------7-|----9------2-|-----2-------9-|
A------|-------------|-0-------------|-------------|---------------|
E------|-0-----0-----|---------0-----|-0------0----|-0-------0-----|


   Am            Am7             B7    C    B7
E|-5--5--------|---------------|-2-----3---3-2-|----2--------| 
B|---------5---|----8---8-10---|---------1-----|----0--------| 
G|-------------|------9--------|---------------|----2--------| 
D|----7------7-|----7--------7-|----1----------|----1--------| 
A|-0-----------|-0-------------|-2---------2---|-2-----2-0---| 
E|-------0-----|--------0------|-------3-------|-----------2-| 
                                                       e e q

   Em              Am              Em   Em               N.C.
E|---7-------7---|----5---5-7----|------0------|-------0-------| 
B|-------8-------|------8--------|-8-----------|---0---------0-| 
G|---------------|---------------|-------------|-----------0---| 
D|-----9-------9-|----7--------7-|----9------2-|-----2-------0-| 
A|---------------|-0-------------|-------------|---------------| 
E|-0-------0-----|--------0------|-0------0----|-0-------0-----| 

                               to Coda
   G      Em      B7              Em    C         F9    B7
E|--------------|-7-5-------5---|-3-0-------3---|-3--3--2---2-0-|
B|-3---3----8---|-------8-------|-------1-------|---------0-----|
G|---4----9-----|---------------|---------------|---------------|
D|-----5------9-|-----7-------7-|-----2-------2-|----1------1---|
A|--------------|---------------|---------3-----|-0-----2-------|
E|-3------0-----|-7-------7-----|-3-------------|---------------|



E|--------------|-----7----| 
B|--------------|--------8-| 
G|--------------|----------| 
D|--------------|----------| 
A|-------0--1-2-|----------| 
E|-0--3---------|-0--------| 
            e e   h
  1st vamp
   Em             Am             Em    Em
E|-7------------|-5--5---5-7---|-----------------|--------------|
B|------8-------|------8-------|-8-----5---------|---0----------|
G|----------9---|--------------|---9-------4---3-|-------0------|
D|----9-------9-|----7-------7-|-----9-------5---|-----2--------|
A|--------------|-0------------|-----------------|--------------|
E|-0------0-----|--------0-----|-0-------0-------|-0-------0--2/|
                                                              sl


                       Summmertime                 2 of 3

   Am                             B7   Gdim  B7         N.C.
E|---5----------|-5---------5---|-2-----3---3-2-|-------------| 
B|--------8-5---|---8---5-------|---------2-----|-------------| 
G|--------------|---------------|---------------|-------------| 
D|-----7------7-|-----7-------7-|----1------2---|----1--------| 
A|-0------------|-0-------------|-2-------------|-2-----2-0---| 
E|--------0-----|---------0-----|-------3-------|-----------2-| 
                                                        e e q
 
   Em             Am             Em    Em         Em          
E|----7---------|-5--5---5-7---|----------------|---------------|
B|------8-------|------8-------|-8-----5--------|---0-------0---|
G|----------9---|--------------|---9-------4--3-|-------0-------|
D|----9-------9-|----7-------7-|-----9------5---|-----2-------2-|
A|--------------|-0------------|----------------|---------------|
E|-0------0-----|--------0-----|-0-------0------|-0-------0-----|


   G     Em       Gdim   B7    Em
E|-------0---3---|-3--3--2---2-0-|-------------0-|-------------| 
B|-3---3---------|---------0-----|-------3-0-3---|---------0---| 
G|---4-----------|---------------|---------------|-------------| 
D|-----5-------2-|----2------1---|----2------2---|----2------2-| 
A|---------------|---------------|---------------|-------------| 
E|-3-------0-----|-3-----2-------|-0-----0-------|-0-----0-----| 

 2nd vamp
   Em               Am              Em
E|----12--10-12---|---------------|-----------------|-------------|
B|----------------|----10--8-10---|-----5-3-----3-5-|---------3---|
G|----------------|---------------|-----------4-----|-------------|
D|-----9--------9-|-----7-------7-|---2---------2---|----2------2-|
A|----------------|-0-------------|-----------------|-------------|
E|-0-------0------|--------0------|-0-------0-------|-0-----0-----|
                                    e e e e e e e e

   Am                                B11
E|----------------|----------------|----------0---|-------0------|
B|----10---8-10---|-10---8-10------|----4---------|-4------------|
G|-------9--------|----9-----------|------2-------|---2----------|
D|-----7--------7-|------7-------7-|----4-------4-|-----4------4-|
A|-0--------------|--0-------------|-0------0-----|-0-------0----|
E|---------0------|-----------0----|--------------|--------------|


   Em               Am7             Em
E|----12--10-12---|---------------|-----------------|-------------|
B|----------------|----10--8-10---|-----5-3-----3-5-|---------3---|
G|----------------|---------------|-----------4-----|-------------|
D|-----9--------9-|-----7-------7-|---2---------2---|----2------2-|
A|----------------|-0-------------|-----------------|-------------|
E|-0-------0------|--------0------|-0-------0-------|-0-----0-----|
                                    e e e e e e e e





                         Summertime                   3 of 3


   G      E7      B7         Em                     D.S.(&) al Coda
E|--------------|-------3---2-0-|--------------0-|---------7---| 
B|-3---3--3---3-|-4--4----4-----|-------3-0--3---|-------------| 
G|---4------4---|---------------|----------------|-------------| 
D|-----0------0-|----4------4---|----2------2----|----2------9-| 
A|--------------|-2-----2-------|----------------|-------------| 
E|-3------4-----|---------------|-0-----0--------|-0-----0-----| 
                                                             
 Coda
   Em                               G      Em      B7
E|-3-0------------0-|-------------|--------------|-7--5----5---| 
B|----------0-h-3---|---------0---|-3---3----8---|-------8-----| 
G|------------------|-------------|---4----9-----|-------------| 
D|-----2------2-----|----2------2-|-----5------9-|----7------7-| 
A|------------------|-------------|--------------|-------------| 
E|-0------0---------|-0-----0-----|-3------0-----|-7-----7-----| 
               [ 3 ]


   Em                               G      Em      B7
E|-3-0------------0-|-------------|--------------|-7--5----5---| 
B|----------0-h-3---|---------0---|-3---3----8---|-------8-----| 
G|------------------|-------------|---4----9-----|-------------| 
D|-----2------2-----|----2------2-|-----5------9-|----7------7-| 
A|------------------|-------------|--------------|-------------| 
E|-0------0---------|-0-----0-----|-3------0-----|-7-----7-----| 
               [ 3 ]


     Em    C         F9    B7
E||--3-0-------3---|-3--3--2---2-0--||----7--3--7-|| 
B||*-------1-------|---------0-----*||------------|| 
G||----------------|----------------||------------|| 
D||*-----2-------2-|----1------1---*||----5-------|| 
A||----------3-----|-0-----2--------||-------2----|| 
E||--0-------------|----------------||-0--------0-|| 
                                rit...
© Copyright 2004-06 JumboJimbo.com
Please note that the lyrics collection is provided for private education/information purposes only. You are advised to confirm your compliance with the appropriate local copyright regulations before using any of the material provided by any Internet lyrics site. The lyrics/chords/tabs sheets represent contributors' interpretations of the material and may not be identical to the original versions, which are copyright their respective owners.