One For My Baby (And One More For The Road)
Words:Johnny Mercer
Music:Harold Arlen
Performed By:  Frank Sinatra (1958), Ella Fitzgerald, Willie Nelson
Copyright:Unknown
Jumbo Jimbo's
Song Lyrics Archive
Search Database:
 


 

This piece contains many chords that are not full chords,
but just fragments.  Don't pay too much attention to the
chord names or expect that they'll be familiar chord shapes.

(Key of Ab)                                              (1)...
          Ab    Ab9        Ab                     Ab9
E-----||-----------------|---------------|---------------|----------------||
B-----||-----------------|---------4-----|---------------|----------------||
G--4--||.-5-4-5-3------4-|-5-4-5-6---6---|--5-4-5-3------|-----------3-4-.||
D-----||.-----6------4---|-----6---------|------6------4-|-----6-5-4---5-.||
A-----||-----------------|-------------6-|---------------|---6------------||
E-----||--4-------4------|-4-------4-----|--4-------4----|-4--------------||

  (2)...
                   Db    Db9        Db    Db9 Db7   Ab
E----------------|----------------|--------------|-----------------| 
B--------------5-|-6-5-6-4------5-|-6-5-6--4--2--|------3-4--------| 
G------------5---|-6-----4--------|-6------4--4--|--5-6------------| 
D------6-5-4-----|-----6------3---|-----6--3--3--|------6------6---| 
A----6-----------|-4--------------|-4------4--4--|-----------------| 
E--4-------------|---------4------|--------------|--4-------4----7s| 


                   C7+5     Abm6      Bbm7 AbM7 Db    Ab
E----------------|-------------------|----------------4-|---------------| 
B----------------|-------------------|------------------|-------4-------| 
G----------------|--5--6s8--4p3------|--6---5---1-----5-|-----------5---| 
D--------6---6-6-|--6-------3---6--6-|--6---5---3---3s6-|-----6-------6-| 
A----6-8---------|-------------------|------------------|---------------| 
E--8-------------|--6-------4--------|--6---4---4-------|--4------4-----| 
                            [ 3 ]
(Key of C)
                (%)
  G7       G7+5   C       CM9      C       G7      C                          G7+5
E---------------|-0---0----------|-0---0-1-3-1---|-0---0----------|---------------|
B-------3---4---|---4---3------4-|---4-----0-----|---4---3--------|-------------4-|
G-----4-----4---|----------------|---------------|----------------|-------------4-|
D---3---------3-|-----2------0---|-----2-------0-|-----2----------|-----2-1p0-----|
A---------------|-3-------2------|-3-------------|-3-------2------|---------------|
E-3-------3-----|----------------|---------3-----|------------0-1-|-2-3-------3---|
  e q.

   C       CM9       C       G7       C       CM9              C9+5
E--0---0----------|--0---0-1-3-1---|--0---0----------|-------------4-| 
B----4---3------4-|----4-----0-----|----4---3--------|-----1p0-------| 
G-----------------|----------------|-----------------|---0-----3---3-| 
D------2------0---|------2-------0-|------2------0-1-|-2---------2---| 
A--3-------2------|--3-------------|--3-------2------|---------------| 
E-----------------|----------3-----|-----------------|---------3-----| 


   F(sort of)                       C
E--5-4-5-3------4-|-5-4-5-3----1-|--0-1-2-3---------|----------------| 
B-----------------|--------------|------------------|-------1----1-1-| 
G--5-4-5-2------4-|-5-4-5-2----2-|------------------|---0-2----------| 
D--3---0----------|-3---0--------|------2------2-1h-|-2----------2---| 
A----------3--0---|---------3--0-|--3-------3-------|---------3------| 
E-----------------|--------------|------------------|----------------| 

                  to Coda
   E7+5   Cm6        Dm CM7  F  G11 C                   Gm7   C7
E--0--1h3---------|--1---0-----------|---------------|----------------| 
B--1------4s31--1-|--3---0---1---1-1-|-------1-------|------3-1-------| 
G--1------2-------|--2---0---2---0-0-|-----------0---|------3-3---3---| 
D--0------1-------|--0-------3---3-2-|-----2-------2-|----3---------2-| 
A-----------------|------------------|--3------------|----------------| 
E-----------------|------0---1---3---|---------3-----|--3-------3-----| 
                                                        e q.
(Bridge:)
  Cm7    F9       Cm7     F9       E7+5    D7 G11 C
E--1-----3-----|--1---1---3-----|--0-3-1-0---------|---------------| 
B------4-1-1---|----4---4-1-1---|--1-------1---1-1-|-------1-------| 
G--3-------2---|--3---------2---|--1-------2---0-0-|-----------0---| 
D----------1---|------------1---|--------------3-2-|-----2-------2-| 
A--3-----------|--3-------------|------------------|--3------------| 
E--------1-----|----------1-----|--0---1---2---3---|---------3-----| 


  Cm7    F9      Cm7      F9       Cm7      Ab9        G7    G7+5
E--1-----3-----|--1---1---3-----|-------------------|--------------| 
B------4-1-1---|----4---4-1-1---|--3--------3-------|--3-------4---| Repeat
G--3-------2---|--3---------2---|----5--------5-----|--4-------4---| Main theme
D----------1---|------------1---|------5--------4---|-----3------3-| 
A--3-----------|--3-------------|--6--------6-------|--------------| 
E--------1-----|----------1-----|--------3--------4-|--3-----3-----| 

(Alternate Bridge:)
       (NC)
E----|--------3-------|----------------|---------------|------0------| 
B----|--------4-------|----------------|---------------|--3h4--------| 
G----|-----3----2-----|-----3--0-------|-5--2--0-------|-------------| 
D----|---1------3-----|---1------------|---------1h2---|-------------| 
A--2-|-3------------2-|-3--------3---5-|----3--2-----3-|-------------| 
E----|----------------|----------1-----|---------------|-------------| 


                                    Cm7    Ab9   G7
E--1---1---3-----|--1---1---3-----|----------------|-----------||
B----4-------1---|----4-------1---|---3-3--3-3---3-|--------4--|| D.S. (%)
G----------------|----------------|---5-5--5-5---4-|--------4--|| al Coda
D------1---3---1-|------1---3---1-|---5-5--4-4---3-|--------3--||
A--3-------------|--3-------------|-6------6-6---5-|-----------||
E----------------|----------------|----------------|--------3--||

(Coda:)
  Dm Cmaj7 F  G11 E       D7           G13   G7b9  C
E--1---0---------0-|----------------|--------0-------|----3---0------|| 
B--3---0---1---1---|----0-------1---|--5--5--------1-|------4---1----|| 
G--2---0---2---0---|--------2-------|--4--4----1-----|---------------|| 
D--0-------3---3---|------2-------0-|-----3------3---|---------------|| 
A------------------|----------------|----------------|--3---------3--|| 
E------0---1---3---|--0-------2-----|--3-----3-------|---------------|| 
                                                            [ 3 ]
© Copyright 2004-06 JumboJimbo.com
Please note that the lyrics collection is provided for private education/information purposes only. You are advised to confirm your compliance with the appropriate local copyright regulations before using any of the material provided by any Internet lyrics site. The lyrics/chords/tabs sheets represent contributors' interpretations of the material and may not be identical to the original versions, which are copyright their respective owners.