Let It Snow, Let It Snow, Let It Snow
Words:Unknown
Music:Unknown
Performed By:  Bing Crosby (1952), Vaughn Monroe, Frank Sinatra, Dean Martin, Ella Fitzgerald, The Nashville Superpickers, Garth Brooks
Copyright:Unknown
Jumbo Jimbo's
Song Lyrics Archive
Search Database:
 


 

Repeat 4 times for the whole song.

e------------5--5--3-----------------------3-----3------------------------------------
b---------------------6--5--6-----------------5-----6--5------------------------------
g------5--5--------------------5-----5--5-----------------5---------------------------
d-------------------------------------------------------------------------------------
a-------------------------------------------------------------------------------------
E-------------------------------------------------------------------------------------

e------------10--10--8--6--5--3-----12--10--8--8--6--5--5--3--1-----------------------
b-------------------------------------------------------------------------------------
g------7--7---------------------------------------------------------------------------
d-------------------------------------------------------------------------------------
a-------------------------------------------------------------------------------------
E-------------------------------------------------------------------------------------
© Copyright 2004-06 JumboJimbo.com
Please note that the lyrics collection is provided for private education/information purposes only. You are advised to confirm your compliance with the appropriate local copyright regulations before using any of the material provided by any Internet lyrics site. The lyrics/chords/tabs sheets represent contributors' interpretations of the material and may not be identical to the original versions, which are copyright their respective owners.