Cry
Words:Churchill Kohlman
Music:Churchill Kohlman
Performed By:  Johnny Ray (1952), Willie Nelson
Copyright:Unknown
Jumbo Jimbo's
Song Lyrics Archive
Search Database:
 


 

Made famous by Johnnie Ray in 1951, this tune has sold
over 35 million copies. A lot of chromatic bass lines.


Intro
                           A       B7                    
+--------5-4-2-0---2-0---+-----0-4--2--+----------++-+
|--------7-5-4-2-4-----2-|---2------0--|--------0-||-|
|----4:------------------|-2--------2--|-2:--3----||-|
|----4:------------------|----------1--|-4:-------||-|
|------------------------|-0--------2--|----------||-|
+------------------------+-------------+----------++-+

        Am6 E         Am6 E        G#7                                      
+----+---5--4--------+-5--4----------+------------+----2--------+
|----|---7--5------0-|-7--5------0-7-|------------|----1--------|
|----|.--5--4----3---|-5--4----3-----|------------|---------0h1-|
|----|.--------------|---------------|----4-------|----1--------|
|----|---0-----------|-0-------------|------------|-3-----4-----|
+----+------4--0-----+----4--0-------+-4-----6--7-+-------------+

    C#m7                       C#9                        C7         
+----2--0--------+-2--0----------+-------------+------------+
|----2--2--------|-2--2--------4-|-------------|----------2-|
|----------0-1---|-------0-1-----|---------4---|----------4-|
|-------2------2-|----2------2---|----3------3-|------------|
|----------------|---------------|-4-----------|-4--3--2----|
+----0-----0-----+-0-----0-------+-------4-----+----------4-+
                   (1)...
     F#m            B7            E          C#7        C7 C#7               
+-----------------+-------------+-------0-2---4-+------------+
|-----0-----------|-4--2------0-|-2--0----------|-------1--2-|
|--------2--1-2---|---------3---|-1--1--1-1---4-|-4-----3--4-|
|--------4------4-|----4------4-|----2------0---|----3--2--3-|
|-----------------|-2-----------|---------------|-------3--4-|
+-----2-----2-----+-------2-----+-0-----0-------+-4----------+

      F#7                          F#m7          B7             
+-----4--2--0-------+--------0--4-+-2----------+--------------+-+
|-------------2-----|---2---------|------------|----0-----0---|-|
|-----3--3--------3-|--------3--3-|-2----------|----2--3-----.|-|
|--------4------4---|-----4-----4-|------------|----1--------.|-|
|-------------------|-------------|-------0--1-|-2------------|-|
+-----2-----2-------+-2------2----+-2--4-------+--------------+-+
  (2)...
      A                 E          C#7       C7 C#7 F#7            
+-----0---------------+-------0-4-----+------------+-4--2--0-------+
|-------2-------------|-0--2--------2-|-------1--2-|---------2-----|
|-----------2---------|-1--2--1-4---4-|-------3--4-|-3--3--------2-|
|---------2---------4-|----2------2---|----3--2--3-|----4------4---|
|-----0---------2-3---|---------------|-------3--4-|---------------|
+-------------0-------+-0-----0-------+-4----------+-2-----2-------+

     F#m    Bb7-9  E             C7               
+------4----4--4-+-0-----------+-------0------++-+
|-----------1--1-|-0-------0---|---1--------1-||-|
|------2----2--2-|-1-----1-----|-3----------3-||-|
|--------4-----1-|----2------2-|-----2------2-||-|
|----------------|-------------|-3------------||-|
+----2------2----+-0-----0-----+---------3----++-+
 Key of F
       Bbm6 F  F     Bbm6 F  F     A7                                    
+----+---6--5--1-----+-6--5--1-------+----5--3-------+-----------------+
|----|---8--6----1---|-8--6----1---2-|----2----5-----|-----------------|
|----|.--6--5--2-----|-6--5--2-------|-------------2-|-2-2---2---2---2-|
|----|.------------3-|-----------3---|----2------2---|-----------------|
|----|---------------|---------------|-0-------------|-0---2---3---4---|
+----+---6--5--1-----+-6--5--1-------+-------0-------+-----------------+

      Dm                            D9                  D7     
+------------------+---------------+---------------+----------+
|--------6---5-----|-6-----5-------|-5-------------|----3---3-|
|----------7---7---|---7-------7---|-5-------------|----5-----|
|--------7-------7-|-----7-------7-|----4----------|----4-----|
|-----5------------|-5-------------|-5-----5-4-3---|----------|
+------------5-----+---------5-----+-------------5-+-5--5-----+
                    (1)...
      G              C7             F          D7                 
+------------------+----------3---+-1--1--1-3---5-+--------------+
|--------3-----3---|----1---1-----|---------------|----------3---|
|----------3h5-----|------3-------|-2--2--2-2---5-|------5-------|
|--------5-------5-|----2-------2-|----3------3---|----4-------4-|
|------------------|-3------------|---------------|--------5-----|
+-----3------3-----+--------3-----+-1-----1-------+-5------------+

      G7                           Gm               C7        B7 C7               
+-----5--3---------+-5-3-------------+----------------+-------------+-+
|------------6-3---|-------6---3-----|---3------3---1-|-------0--1--|-|
|----------4-------|---------------3-|--------4-------|-------2--3-.|-|
|--------3-------3-|-----3-------3---|-----5------3---|----2--1--2-.|-|
|------------------|-----------------|----------------|-3-----2--3--|-|
+-----3------3-----+-3-------3-------+-3------4-------+-------------+-+
      (2)...
       Bb    Bbm       F           D7       C#7 D7  G7                             
+--------------------+-------1-3---5-+------------+---5-----3-----+
|------8-6-------6---|-1--1----------|-------2--3-|-----------3---|
|------7-----6-------|-2--2--2-2---5-|-------4--5-|-------4-------|
|----------8-------8-|----3------3---|----4--3--4-|-----3-------3-|
|--------------------|---------------|-------4--5-|---------------|
+------6-------6-----+-1-----1-------+-5----------+-3-------3-----+

             C7b9    F        D7       C#7 D7  G7                        
+--------5----5--5-+-1----------+------------+---5-----3-----+
|-------------2--2-|-1----------|----3--2--3-|-----------3---|
|------3------3--3-|-2----------|----5--4--5-|-------4-------|
|----------5-----2-|----3-2-1---|----4--3--4-|-----3-------3-|
|------------------|----------5-|-5--5--4--5-|---------------|
+------3------3----+-1----------+------------+-3-------3-----+
                              (tied)

            C7b9    F                               
+-------5----5--5-+-1-------6-5-+--1---++-+
|------------2--2-|-1---0-1-----|------||-|
|-----3------3--3-|-2-----------|--2---||-|
|---------5-----2-|-------------|------||-|
|-----------------|-------------|------||-|
+-----3------3----+-1-----------+--1---++-+
© Copyright 2004-06 JumboJimbo.com
Please note that the lyrics collection is provided for private education/information purposes only. You are advised to confirm your compliance with the appropriate local copyright regulations before using any of the material provided by any Internet lyrics site. The lyrics/chords/tabs sheets represent contributors' interpretations of the material and may not be identical to the original versions, which are copyright their respective owners.