Blues In The Night
Words:Johnny Mercer
Music:Harold Arlen
Performed By:  Rosemary Clooney (1952), Frank Sinatra, Ella Fitzgerald
Copyright:Unknown
Jumbo Jimbo's
Song Lyrics Archive
Search Database:
 


 

       Blues In The Night - Arranged by Mike Ingram (mwingram@snet.net)


         E7                 F#7-9     B7          E7
E------+-----------------5-+-3------------------+-----------------5-+ 
B--0-2-|-3--------3--------|----------0-----0-2-|-3--------3--------| 
G------|-4----4-------/6---|-3----------2-------|-4----4-------/6---| 
D------|----2-------2------|--------------1-----|----2-------2------| 
A------|-------------------|--------0-2---------|-------------------| 
E------+-0------0----------+-2--0h2-------------+-0------0----------+ 
                                [ 3 ]

  F#7-9     B7       (NC)
E--3--------2-----++---0-------0-------------+---0------0---------+ 
B---------------0-||-4---0-4---------------0-|-4---0-4----------0-| 
G--3--------2-----||-------------------------|--------------------| 
D-----------------||-6-----6-----------------|-6-----6------------| 
A---------0-2-----||-------------2---2-4---2-|------------2-2-4-2-| 
E--2--0h2---------++-0---0-4---4-------------+-0---0-4--4---------+ 
      [ 3 ]          [ 3 ] [ 3 ] [ 3 ] [ 3 ] etc...

                                          A9
E----0------0---------+-----------------+------------------+-------------------+
B--4---0-4------------|-----------------|-0-----0----------|-0-----0-----------|
G-------------------1-|-----------------|---2-----2--------|---2-----2---------|
D--6-----6----------2-|---------------2-|-----2----------2-|-----2-------------|
A-------------2-2-4-2-|-----------------|-0----------------|-0-----------------|
E--0---0-4--4---------+-0-0-2-2-3-3-4---+-------3---2--0---+-------3---2--0-/4-+
                                          [ 3 ]


   (NC)                                B7             F#7-9      B7#9
E----0-------------+-----------------+-1s2---1-2-----+-3p2-3-0-0-----------+
B------3-2-0-2-----|---------------0-|-------------0-|-----------3p2-3-0-0-|
G--------------0-1-|------------^1---|-1s2---2-2-----|-3---------2---------|
D------4---1---1-2-|------------|2---|---------------|---------------------|
A----------0---2---|----5s4-2---|2---|-----2---------|---------------------|
E--0---4-----------+-0--------0------+---------------+-2---------2---------+
                        [ 3 ]          [ 3 ]

   (NC)                E               E                B7+5
E----0---------------+------0-------++-4----7-4-------+------7---0-----+ 
B--4-------------2p0-|----------0---||----------5---0-|-8------8-----0-| 
G--------------------|--------------||-4----------6---|-8----------6---| 
D--6-----------------|-2------------||----6-------6---|----7-----------| 
A----------2-2-4-----|----2-------2-||----------------|------------0---| 
E--0-0-4-4-----------+-0------0-----++-0------0-------+-7------7-------+ 


   E                 (NC)          A9               B7*                  *B7
E--3-4-------------+-------------+------7---------+-5-----5h7-5---0---+   5-1
B--------5---------|-------------|-8------8-----0-|-------------8-----|   7-3
G--3-4-------4-----|-------------|-9--------9-6---|---8-------------5-|   8-4
D------6-------6---|-1h2---1-2---|----7-----------|-----7---------7---|   7-2
A----------------2-|-----2-------|-0----------0---|-------------------|   x
E--0-------0-------+-------------+--------0-------+-7---------7-------+   7-T
                     [ 3 ]

   E                 (NC)                              F#7-9      B7+9
E--3-4-------------+--------------+-6h7---6-7---------+-3p2-3-0-0-----------+
B--------5---------|------------0-|-----0-----------0-|-----------3p2-3-0-0-|
G--3-4-------4-----|--------------|-------------------|-3---------2---------|
D------6-------6---|-1h2---1-2----|-------------------|---------------------|
A----------------2-|-----2--------|-6*----7---8---9---|---------------------| *use 
E--0-------0-------+--------------+-------------------+-2---------2---------+  thumb
                                    [ 3 ]   
                                  
   (NC)                        rit..
E----0---------------+------0--------0-+ 
B--4-------------2p0-|-----------0-2---| 
G--------------------|-----------------| 
D--6-----------------|-2---------------| 
A----------2-2-4-----|----2------------| 
E--0-0-4-4-----------+-0------0--------+ 

Bridge played a bit slower

       A13            Am               G6              F#7-9
E-++----------------+-------------7----0-+--------0---0-3-+---3p2-------+ 
B-||---7----5-7-5---|-10-----8-10------0-|------3---3-----|-------2-----| 
G-||.--6------------|--9-----------------|--------------3-|---------^3--| 
D-||.--5--5-------5-|-10--10--------10---|----0-------0---|---------|2--| 
A-||---0------------|--0-----------------|----------------|---------|4--| 
E-++----------0-----+-----------0--------+-3------3-------+-2-------|2--+ 

                     (1)...     
   G9                Em     F#7   B7 (NC)
E------------------+-2------2-0-2-2-+-----------------0-0-+-------1-1-------2-+
B--3---2-2-3---0-2-|-0------------4-|-------4-4-----------|-----0---------0---|
G--2---0---2---0---|--------3-----2-|-----2---------2-----|---2---------2-----|
D----3-------3-----|----------------|---4---------4-------|-0---------1-------|
A------------------|----------------|-2---------3---------|-------------------|
E--3-------3-------+-3--0-1-2-------+---------------------+-------------------+
                                      [ 3 ]
             (2)...
              Em     F#7   B13 (NC)                            rit...
E--------0-++-2------2-0-2---+-----------------0-0-+-------1-1-------2---++
B----0-2---||-0------------9-|---------------------|-----0---------0---0-||
G---------.||--------3-----8-|-------8-8-----2-----|---2---------2-------||
D---------.||--------------7-|-----7-------4-------|-0---------1---------||
A----------||----------------|---9-------3---------|---------------------||
E----------++-3--0-1-2-------+-7-------------------+---------------------++


  (NC)
E----0-------0-------------+---0------0---------+---0------0-------+ 
B--4---0-4---------------0-|-4---0-4----------0-|-4---0-4----------| 
G--------------------------|--------------------|----------------1-| 
D--6-----6-----------------|-6-----6------------|-6-----6--------2-| 
A--------------2---2-4---2-|------------2-2-4-2-|------------2-2-2-| 
E--0---0-4---4-------------+-0---0-4--4---------+-0---0-4--4-------+ 
      [ 3 ]          [ 3 ] [ 3 ] [ 3 ] [ 3 ] etc...



E----7---0---------------+----------------0-+-7------7------7------7------+
B------8---3-0-----------|-0-----0----------|---10-----10-----10-----10---|
G--------------3s2-0h1---|---2-----2--------|------9------9------9------9-|
D----------------------2-|-----2------------|-----------------------------|
A------------------------|-0----------------|-0---------------------------|
E--0---------------------+-------3---2--0---+-----------------------------+
       [ 3 ] [ 3 ] [ 3 ]

    E                                  B7             F#7-9      B7+9
E-------------------+----------------+-1h2---1-2-----+-3p2-3-0-0-----------+
B-------------------|--2p0-----------|-------------0-|-----------3p2-3-0-0-|
G-------------------|------0h1-------|-2-----2-2-----|-3---------2---------|
D--^2-2p0-----------|----------2-----|---------------|---------------------|
A--|2-----4-2-4-----|------------4-2-|-----2---------|---------------------|
E--|0-----------3h4-+----------------+---------------+-2---------2---------+
                                       [ 3 ]

   (NC)                E                                 F#7-9     B7+5
E----0---------------+------0--------0-+--------------5-+-3--------3-----+ 
B--4-------------2p0-|-----------------|-3--------3p2---|--------------0-| 
G--------------------|-------------1---|-1--------------|-3--------2-----| 
D--6-----------------|-2---------2-----|----------------|----------------| 
A----------2-2-4-----|----2------------|----------------|--------0-2-----| 
E--0-0-4-4-----------+-0------0--------+-0--0--0--0-----+-2--0h2---------+ 
                                 [ 3 ]                       [ 3 ]
   rit...
   F#7-9     B11      E
E--3p2-3-0-0--------+-----12---++ 
B------------0--2p0-|------9---|| 
G--3---------2------|------9---|| 
D------------2------|------9---|| 
A------------2------|-----11---|| 
E--2----------------+-0--------++ 
© Copyright 2004-06 JumboJimbo.com
Please note that the lyrics collection is provided for private education/information purposes only. You are advised to confirm your compliance with the appropriate local copyright regulations before using any of the material provided by any Internet lyrics site. The lyrics/chords/tabs sheets represent contributors' interpretations of the material and may not be identical to the original versions, which are copyright their respective owners.