Over The Rainbow
Words:Edgar Yipsel Harburg
Music:Harold Arlen
Performed By:  Judy Garland (1939), Frank Sinatra, Ella Fitzgerald, Eric Clapton
Copyright:Unknown
Jumbo Jimbo's
Song Lyrics Archive
Search Database:
 


 

Larry Kuhns (1999) lakuhns@sprintmail.com

Tuning : D A D G B E 	Time Signature: 4/4


  |       |       |       |          |       |       |       |         
|-------------------------0--------|-----0-------0-------0-------0----|
|----------------------------------|-2-------2-------2-------2--------|
|----------------------------------|-4-------2-------1----------------|
|----------------------------------|-------------------------4--------|
|----------------------------------|----------------------------------|
|----------------------------------|----------------------------------|

  |       |       |       |          |       |       |       |         
|-----0-------0-------0-------0----|-2---------------2----------------|
|-3-------3-------3-------3--------|---------2---------------2--------|
|-----------------0-------1--------|---------2---------------0--------|
|-3-------4------------------------|----------------------------------|
|----------------------------------|-0---------------1----------------|
|----------------------------------|----------------------------------|

  |       |       |       |          |       |       |       |         
|-----2---2---0---------------0----|-----0-------0-------0-------0----|
|-----3---3---2---0---2---3--------|-2-------2-------2-------2--------|
|-----------------1----------------|-2-------1-------2-------2--------|
|----------------------------------|-----------------4-------2--------|
|-2--------------------------------|-0--------------------------------|
|-----------------2----------------|----------------------------------|

  |       |       |       |          |       |       |       |         
|----------------------------------|-4---------------4----------------|
|-4---7---4---7---4---7---4---7----|---------5---------------4--------|
|-5--------------------------------|---------4---------------2--------|
|-4--------------------------------|----------------------------------|
|----------------------------------|-4---------------3----------------|
|-6--------------------------------|----------------------------------|

  |       |       |       |          |       |       |       |         
|-2---------------0----------------||----4---------------4------------|
|---------3------------------------|*------------2---------------2----|
|---------2---------------1--------||4--------------4---------------|
|-------------------------0--------||--------2--------------2-------|
|-2-----------------------------0--|*---------------------------------|
|-----------------2----------------||---------------------------------|

  |       |       |       |          |       |       |       |         
|-----2---------------2------------|-----2---------------2------------|
|-------------2---------------2----|-------------2---------------2----|
|-2--------------2---------------|-1--------------1---------------|
|---------2--------------2-------|---------2--------------2-------|
|----------------------------------|----------------------------------|
|----------------------------------|----------------------------------|

  |       |       |       |          |       |       |       |         
|-----3p--2------------------------|----------------------------------|
|-----------------3p--2------------|-----3---------------3------------|
|-2--------------------------2----|-------------4---------------4----|
|-------------2-------------------|-4--------------4---------------|
|-------------------------2-------|---------4--------------4-------|
|----------------------------------|----------------------------------|

  |       |       |       |          |       |       |       |         
|----------------------------------|----------------------------------|
|-----3---------------3------------|-----2---------------2------------|
|-------------4---------------4----|-------------2---------------2----|
|-3--------------3---------------|-2--------------2---------------|
|---------4--------------4-------|---------2--------------2-------|
|----------------------------------|----------------------------------|

  |       |       |       |          |       |       |       |         
|-----3p--2------------------------|----------------------------------|
|-----------------3p--2------------|-----3---------------3------------|
|-2--------------------------2----|-------------4---------------4----|
|-------------2-------------------|-4--------------4---------------|
|-------------------------2-------|---------4--------------4-------|
|----------------------------------|----------------------------------|

  |       |       |       |          |       |       |       |         
|----------------------------------|----------------------------------|
|-----3---------------3------------|-----2---------------2------------|
|-------------2---------------2----|-------------2---------------2----|
|-3--------------3---------------|-2--------------2---------------|
|---------2--------------2-------|---------2--------------2-------|
|----------------------------------|----------------------------------|

  |       |       |       |          |       |       |       |         
|-----4p--2------------------------|-----------------------------2----|
|-----------------3p--2------------|---------------------0------------|
|-2--------------------------2----|-------------2-----------2-------|
|-------------2-------------------|-----1-----------1---------------|
|-------------------------2-------|---------2-----------------------|
|----------------------------------|-2-------------------------------|

  |       |       |       |        >1|       |       |       |         
|-----2p--0-----------------------||----------------------------------|
|-----------------2p--0-----------||----------------------------------|
|-1--------------------------1---||-2-------2---------------2--------|
|-------------0{------------------||---------2---------------2--------|
|-------------------------0{------||-0--------------------------------|
|---------------------------------||----------------------------------|

  |       |       |       |          |       |       |       |         
|-5--------------------------------|-4--------------------------------|
|---------2---------------2--------|-----------------5-------7--------|
|---------2---------------2--------|---------4---------------4--------|
|----------------------------------|---------6---------------6--------|
|----------------------------------|-4--------------------------------|
|-4--------------------------------|----------------------------------|

  |       |       |       |          |       |       |       |         
|-4---------------5----------------|----------------------------------|
|----------------------------------|----------------------------------|
|---------4---------------6--------|-2-------2---------------2--------|
|---------6---------------5--------|---------4---------------4--------|
|-4--------------------------------|----------------------------------|
|-----------------7----------------|-0--------------------------------|

  |       |       |       |          |       |       |       |         
|-2--------------------------------|----------------------------------|
|----------------------------------|-5--------------------------------|
|---------2---------------2--------|---------2---------------2--------|
|---------4---------------4--------|---------2---------------2--------|
|-3--------------------------------|-4--------------------------------|
|----------------------------------|----------------------------------|

  |       |       |       |          |       |       |       |         
|-2---------------0----------------|----------------------------------|
|-----3p--0-----------2p--0--------|----------------------------------|
|-------------0---------------0----|---------2---------------2--------|
|----------------------------------|-4-------4---------------4--------|
|-----------------0----------------|----------------------------------|
|-2--------------------------------|-0--------------------------------|

  |       |       |       |          |       |       |       |         
|-----------------1p--0------------|----------------------------------|
|-3-----------------------3--------|-2--------------------------------|
|---------2------------------------|---------2-------2-------4--------|
|---------3------------------------|---------2-------5----------------|
|-2--------------------------------|-0--------------------------------|
|----------------------------------|-----------------5----------------|

  |       |       |       |          |       |       |       |         
|----------------------------------|----------------------------------|
|-2---------------3----------------|-0--------------------------------|
|---------3---------------3--------|---------2-------1-------2--------|
|---------2---------------2--------|---------1-------0----------------|
|-----------------3----------------|-2--------------------------------|
|-4--------------------------------|-----------------2----------------|

  |       |       |       |          |       |       |       |         
|----------------------------------|----------------------------------|
|-0---------------2p--0------------|----------------------------------|
|---------1---------------2p--1----|-2-------2---------------2--------|
|---------0------------------------|---------2---------------2--------|
|----------------------------------|-0--------------------------------|
|-2--------------------------------|----------------------------------|

  |       |       |       |          |       |       |       |         
|-----------------0----------------|-------------0-----------0--------|
|-----------------------------2----|-----2-----------2-----------2----|
|---------1-------------------2----|---------2-----------1-------2----|
|---------0---------------0--------|----------------------------------|
|----------------------------------|-0--------------------------------|
|-2--------------------------------|----------------------------------|

  |       |       |       |          |       |       |       |         
|-------------0-----------0--------|-------------0-----------0--------|
|-----2-----------2-----------3----|-----3-----------3-----------3----|
|---------2-------2-----------2----|---------2-----------1-------0----|
|-4---------------2----------------|----------------------------------|
|----------------------------------|-2--------------------------------|
|----------------------------------|----------------------------------|

  |       |       |       |          |       |       |       |         
|-------------0-----------0--------|-2--------------------------------|
|-----3-----------3----------------|----------------------------------|
|---------0-------1----------------|---------2---------------2--------|
|-----------------2----------------|---------2---------------2--------|
|----------------------------------|-0--------------------------------|
|-2--------------------------------|----------------------------------|

  |       |       |       |          |       |       |       |         
|-2--------------------------------|----------------------------------|
|----------------------------------|----------------------------------|
|---------0---------------0--------|---------2---------------2--------|
|---------2---------------2--------|---------4---------------4--------|
|-1--------------------------------|-2--------------------------------|
|----------------------------------|----------------------------------|

  |       |       |       |          |       |       |       |         
|-----------------0----------------|-------------0-----------0--------|
|-----------------------------2----|-----2-----------2-----------2----|
|---------1-------------------2----|---------2-----------1-------2----|
|---------0---------------0--------|----------------------------------|
|----------------------------------|-0--------------------------------|
|-2--------------------------------|----------------------------------|

  |       |       |       |          |       |       |       |         
|-------------0-----------0--------|----------------------------------|
|-----2-----------2----------------|-4-------7-------4-------7--------|
|---------2-------2----------------|---------5---------------5--------|
|-4---------------2----------------|---------4---------------4--------|
|----------------------------------|----------------------------------|
|----------------------------------|-4--------------------------------|

  |       |       |       |          |       |       |       |         
|----------------------------------|-4--------------------------------|
|-4-------7-------4-------7--------|----------------------------------|
|---------5---------------5--------|---------4---------------4--------|
|---------4---------------4--------|---------6---------------6--------|
|----------------------------------|-4--------------------------------|
|-4--------------------------------|----------------------------------|

  |       |       |       |          |       |       |       |         
|-4---------------5/--9---8--------|-7--------------------------------|
|---------4------------------------|----------------------------------|
|---------5------------------------|---------7---------------7--------|
|----------------------------------|---------9---------------9--------|
|-3--------------------------------|----------------------------------|
|----------------------------------|-9--------------------------------|

  |       |       |       |          |       |       |       |         
|-2---------------0----------------|----------------------------------|
|----------------------------------|----------------------------------|
|---------1---------------1--------|-2-------2---------------2--------|
|---------0---------------0--------|---------2---------------2--------|
|----------------------------------|-0--------------------------------|
|-2--------------------------------|----------------------------------|

  |       |       |       |          |       |       |       |         
|-5--------------------------------|-4--------------------------------|
|---------2---------------2--------|-----------------5-------7--------|
|---------2---------------2--------|---------4---------------4--------|
|----------------------------------|---------6---------------6--------|
|----------------------------------|-4--------------------------------|
|-4--------------------------------|----------------------------------|

  |       |       |       |          |       |       |       |         
|-4---------------7-------5--------|----------------------------------|
|----------------------------------|----------------------------------|
|---------4---------------6--------|-2-------2---------------2--------|
|---------6---------------5--------|---------4---------------4--------|
|-4--------------------------------|----------------------------------|
|-----------------7----------------|-0--------------------------------|

  |       |       |       |          |       |       |       |         
|-----------------2---5---4--------|----------------------------------|
|-4--------------------------------|-5--------------------------------|
|---------2------------------------|---------2---------------2--------|
|---------4------------------------|---------2---------------2--------|
|-3--------------------------------|-4--------------------------------|
|----------------------------------|----------------------------------|

  |       |       |       |          |       |       |       |         
|-2---------------0----------------|----------------------------------|
|-----3p--0-----------2p--0--------|----------------------------------|
|-------------1---------------0----|---------2---------------2--------|
|----------------------------------|-4-------4---------------4--------|
|-----------------0----------------|----------------------------------|
|-2--------------------------------|-0--------------------------------|

  |       |       |       |          |       |       |       |         
|-----------------3p--1---0--------|----------------------------------|
|-3---------------------------3----|-2--------------------------------|
|---------2------------------------|---------2-------2-------4--------|
|---------3------------------------|---------2-------5----------------|
|-2--------------------------------|-0--------------------------------|
|----------------------------------|-----------------5----------------|

  |       |       |       |          |       |       |       |         
|----------------------------------|----------------------------------|
|-2---------------3----------------|-0--------------------------------|
|---------3---------------3--------|---------2-------1-------2--------|
|---------2---------------2--------|---------1-------0----------------|
|-----------------3----------------|-2--------------------------------|
|-4--------------------------------|-----------------2----------------|

  |       |       |       |          |       |       |       |         
|----------------------------------|----------------------------------|
|-0---------------2----------------|----------------------------------|
|---------1---------------1--------|-2-------2---------------2--------|
|---------0---------------0--------|---------2---------------2--------|
|----------------------------------|-0--------------------------------|
|-2--------------------------------|----------------------------------|

  |       |       |       |          |       |       |       |         
|-----------------0----------------|-----0-------0-------0-------0----|
|----------------------------------|-2-------2-------2-------2--------|
|---------1---------------1--------|-4-------2-------1----------------|
|---------0---------------0--------|-------------------------4--------|
|----------------------------------|-0--------------------------------|
|-2--------------------------------|----------------------------------|

  |       |       |       |          |       |       |       |         
|-----0-------0-------0---2--------|-4-------------------------------||
|-3-------3-------3-------3--------|---------------------------------*|
|-----------------0-------1--------|---------------------------------||
|-3-------4------------------------|---------------------------------||
|----------------------------------|-------------------------------0-*|
|----------------------------------|---------------------------------||

>2|       |       |       |          |       |       |       |         
|----------------------------------|-5--------------------------------|
|----------------------------------|---------2---------------2--------|
|-2-------2---------------2--------|---------2---------------2--------|
|---------2---------------2--------|----------------------------------|
|-0--------------------------------|----------------------------------|
|----------------------------------|-4--------------------------------|

  |       |       |       |          |       |       |       |         
|-4--------------------------------|-4---------------5-------------0--|
|-----------------5-------7--------|-------------------------------0--|
|---------4---------------4--------|---------4---------------6--------|
|---------6---------------6--------|---------6---------------5--------|
|-4--------------------------------|-4-----------------------------0--|
|----------------------------------|-----------------7----------------|

  |       |       |       |          |       |       |       |         
|-------------0---------------0----|-------------0---------------0----|
|-----0h--2-------0-----------0----|-----0h--2-------0-----------0----|
|---------------------2-------2----|---------------------2-------2----|
|-----------------------------2----|-----------------------------2----|
|-----------------------------0----|-----------------------------0----|
|----------------------------------|----------------------------------|

  |       |       |       |          |       |       |       |         
|-------------0--------------------|----------------------------------|
|-----0h--2-------0----------------|----------------------------------|
|---------------------2------------|----------------------------------|
|----------------------------------|----------------------------------|
|----------------------------------|-0--------------------------------|
|----------------------------------|----------------------------------|
© Copyright 2004-06 JumboJimbo.com
Please note that the lyrics collection is provided for private education/information purposes only. You are advised to confirm your compliance with the appropriate local copyright regulations before using any of the material provided by any Internet lyrics site. The lyrics/chords/tabs sheets represent contributors' interpretations of the material and may not be identical to the original versions, which are copyright their respective owners.